Jasey Rae Acoustic Tab - All Time Low




I think the tuning is called "Dropped D" or whatever, but I also tuned to B-string down to an A.


Intro

e|--5--5--5--5--0--0--0--0--0----0----0--0--0----5-------------------------|
A|--0--0--0--0--0--0--0--0--0----0----0--0--0----0-------------------------|
G|--7--6--7--6--7--6--7--6--11---9----7--6--7----7-------------------------|
D|--0--0--0--0--0--0--0--0--0----0----0--0--0----0-------------------------|
A|--0--0--0--0--5--5--5--5--9----7----5--5--5----0-------------------------|
D|--0--0--0--0--5--5--5--5--9----7----5--5--5----0-------------------------|

First Verse
 "...these images..."/"...now keep..."/"...making mistakes..."/"...voice..."
e|--0-----------------0-----------------0----------------------0-----------|
A|--0-----------------0-----------------0----------------------0-----------|
G|--11----------------9-----------------7----------------------9-----------|
D|--0-----------------0-----------------0----------------------0-----------|
A|--9-----------------7-----------------5----------------------7-----------|
D|--9-----------------7-----------------5----------------------7-----------|

x2                

Chorus
"Don't make this easy..."           
e|--5----0----0----0----0----0----0----0--|
A|--0----0----0----0----0----0----0----0--|
G|--7----9----7----9----11---9----7----9--|
D|--0----0----0----0----0----0----0----0--|
A|--0----7----5----7----9----7----5----7--|
D|--0----7----5----7----9----7----5----7--|

[After Chorus]
e|--5--5--5--5--0----0----0------|
A|--0--0--0--0--0----0----0------|
G|--7--6--7--6--11---9----7------|
D|--0--0--0--0--0----0----0------|
A|--0--0--0--0--9----7----5------|
D|--0--0--0--0--9----7----5------|

Second Verse
"...common sense..."/"...to bring..."/"...that I make..."/"...desperate..."
e|--0-----------------0------------------0--------------------0----------|
A|--0-----------------0------------------0--------------------0----------|
G|--11----------------9------------------7--------------------9----------|
D|--0-----------------0------------------0--------------------0----------|
A|--9-----------------7------------------5--------------------7----------|
D|--9-----------------7------------------5--------------------7----------|

x2

Chorus
"Don't make this easy..."           
e|--5----0----0----0----0----0----0----0--|
A|--0----0----0----0----0----0----0----0--|
G|--7----9----7----9----11---9----7----9--|
D|--0----0----0----0----0----0----0----0--|
A|--0----7----5----7----9----7----5----7--|
D|--0----7----5----7----9----7----5----7--|

Bridge
"I've never told a lie..."
e|--0-----------------0------------------0--------------------0----------|
A|--0-----------------0------------------0--------------------0----------|
G|--11----------------9------------------7--------------------9----------|
D|--0-----------------0------------------0--------------------0----------|
A|--9-----------------7------------------5--------------------7----------|
D|--9-----------------7------------------5--------------------7----------|

"Wait outside..."
e|--0-----------------0------------------5--------------------0----------|
A|--0-----------------0------------------0--------------------0----------|
G|--11----------------9------------------7--------------------9----------|
D|--0-----------------0------------------0--------------------0----------|
A|--9-----------------7------------------0--------------------7----------|
D|--9-----------------7------------------0--------------------7----------|



ĂŽnscrie-te la newsletter


Join the ranks ! LIKE us on Facebook