Jasey Rae Intro (ver3) Tab - All Time Low




ok the other versions acoustic or a little off. heres the electric  version. drop D.

guitar 1
e|---------------------------------|
B|--15----------15----------15-----|
G|------14--12------14--12------14-|x4
D|---------------------------------|
A|---------------------------------|
E|---------------------------------|

e|--12--10------12--10------12--10-|
B|----------10----------10---------|
G|---------------------------------|x2
D|---------------------------------|
A|---------------------------------|
E|---------------------------------|

e|--14----------14----------15-----|
B|------15----------15----------14-|
G|----------14----------14---------|
D|---------------------------------|
A|---------------------------------|
E|---------------------------------|

e|--12----------12----------12-----|
B|------15----------15----------15-|
G|---=------14----------14---------|
D|---------------------------------|
A|---------------------------------|
E|---------------------------------|

e|-10-10-10-10-10-10-10-10-10-10-10-10-10-10-10-10/-|
B|--------------------------------------------------|
G|--------------------------------------------------|
D|--------------------------------------------------|
A|--------------------------------------------------|
E|--------------------------------------------------|

guitar 2(drop D)
e|-----------------------------------------------|
B|-----------------------------------------------|
G|-----------------------------------------------|
D|--5~-----4-----0-0-0-0-0-0-0-0-0-0-0-0-0-0-0-0-|
A|--5~-----4-----0-0-0-0-0-0-0-0-0-0-0-0-0-0-0-0-|
D|--5~-----4-----0-0-0-0-0-0-0-0-0-0-0-0-0-0-0-0-|

e|----------------------------------------------------|
B|----------------------------------------------------|
G|----------------------------------------------------|
D|--5-5-5-5-5-5-5-5-4-4-4-4-4-4-4-4-0-0-0-0-0-0-0-0-0-|
A|--5-5-5-5-5-5-5-5-4-4-4-4-4-4-4-4-0-0-0-0-0-0-0-0-0-|
D|--5-5-5-5-5-5-5-5-4-4-4-4-4-4-4-4-0-0-0-0-0-0-0-0-0-|

e|----------------------------------------------|
B|----------------------------------------------|
G|----------------------------------------------|
D|--9-9-9-9-7-7-7-7-5~-----5-5-5-5-5-5-5-5-5-0~-|
A|--9-9-9-9-7-7-7-7-5~-----5-5-5-5-5-5-5-5-5-0~-|
D|--9-9-9-9-7-7-7-7-5~-----5-5-5-5-5-5-5-5-5-0~-|
                           . . . . . . . . . 

ĂŽnscrie-te la newsletter


Join the ranks ! LIKE us on Facebook