Running From Lions Bass Tab - All Time Low




Intro
G----------------------------------------------------------------------|
D----------------------------------------------------------------------|
A-4444444444444444------------------2222222222222222-77777777-66666666-|
E------------------2222222222222222------------------------------------|

Verse 1:
G--------------------64-------------------------------------|
D-------444666---------64-----------------------------------|
A-44444--------44444-----6-4--------------------------42----|
E---------------------------6-4-55555/-222444-55555-23--432-|

G-------------------------------------------------------------------------|
D----------44446666----------44446666-------------------------------------|
A-44444444-----------44444444---------------------------------------------|
E-------------------------------------55555555-22224444-55555555-22224444-|

Pre Chorus
G---------|
D-7~---9~-|
A---------|
E---------|

G----------------------------------------------------------------------|
D----------------------------------------------------------------------|
A------------------4444444444444444------------------------------------|
E-0000000000000000------------------4444444444444444-22222222-55555555-|

G------------------------------------------------------------------------------|
D------------------------------------------------------------------------------|
A-----------------4444444444444444---------------------------------------------|
E-0000000000000000----------------44444444444444442222222555555522222225555555-|

Intro x1

Verse 2
G----------------------------10--98------------------------------|
D-------444666---------67----------8-----------------------------|
A-44444---------44444------------------------------------4202023-|
E------------------------------------55555-222444-55555----------|

G-------------------------------------------|
D----------44446666----------44446666-------|
A-44444444----------44444444----------------|
E--------------------------------------0~---|

Bridge
G--------------------------------------------------------------------|
D--------------------------------------------------------------------|
A------------------4444444466667777----------------------------------|
E-0000000000000000------------------44444444444444445555555555555555-|

G------------------------------------------------------|
D------------------------------------------------------|
A------------------4444444466667777--------------------|
E-0000000000000000------------------4444444444444444-5-|

Final Chorus
G--------------------------------------------------------------------|
D--------------------------------------------------------------------|
A------------------4444444444444444----------------------------------|
E-0000000000000000------------------44444444444444442222222255555555-|

G-----------------------------------------------------|
D-----------------------------------------------------|
A------------------4444444444444444-------------------|
E-0000000000000000------------------44444444444444444-|

G-------------------------------------------------------|
D-------------------------------------------------------|
A-------------------------------------------------------|
E-22222222-55555555-22222222-55555555-22222222-55555555-|

Ending
G------------|
D------------|
A------------|
E-2~--5~--0~-|

ĂŽnscrie-te la newsletter


Join the ranks ! LIKE us on Facebook