Running From Lions Intro Tab - All Time Low




----------------------------------------------------------------------------
     Running From Lions - All Time Low
----------------------------------------------------------------------------

Tuning:

e|--------------------------|
B|--------------------------|
G|--6-6-6-6-7---------------|
D|------------7-7-7-9-9-9-9-| x8
A|--4-4-4-4-5-7-7-7-9-9-9-9-|
E|------------5-5-5-7-7-7-7-|

e|------------|
B|-12-9-10--9-|
G|--------11--| x4
D|------------|
A|------------|
E|------------|

i havent found out the entire song yet..this is really accurate though

ĂŽnscrie-te la newsletter


Join the ranks ! LIKE us on Facebook