Shameless Tab - All Time Low




-----------------------------------------------------------------
Shameless  All Time Low
-----------------------------------------------------------------
Tabbed by: Bair
Email: bair_morritt@hotmail.com

Tuning: Standard

Intro:
e|------------------------------------------|
B|------------------------------------------|
G|--7-------------77------------------------|
D|--7-(Let Ring)--77------------------------|
A|--5-------------55------------------------|
E|------------------------------------------|

Intro LEAD:
e|------------------------------------------|
B|-7-7-7-7---7-7-7-7-6-6-7------------------|
G|---------7----------------(X4)------------|
D|------------------------------------------|
A|------------------------------------------|
E|------------------------------------------|

Verse:
e|------------------------------------------|
B|------------------------------------------|
G|--77--77-7--------------------------------|
D|--77--77-7--55--9999--7777-(X2)-----------|
A|--55--55-5--55--9999--7777----------------|
E|------------33--7777--5555----------------|
Hips sway and lips....

Pre-Chorus:
e|---------------------------------------------------|
B|---------------------------------------------------|
G|------------77777777-------------------------------|
D|--99999999--77777777--777777777777--55555555-(X2)--|
A|--99999999--55555555--777777777777--55555555-------|
E|--77777777------------555555555555--33333333-------|
Take me, show me....

Chorus:
e|------------------------------------------|
B|------------------------------------------|
G|--7---------------------------------------|
D|--7-(Let Ring)--5-(Let Ring)--------------|
A|--5-------------5-------------------------|
E|----------------3-------------------------|
Tonight Im finding a way....

-Then Verse
-Then Pre-Chorus

Second Chorus:
e|------------------------------------------|
B|------------------------------------------|
G|--777777777777--44444444------------------|
D|--777777777777--44444444--55555555-(X2)---|
A|--555555555555--22222222--55555555--------|
E|--------------------------33333333--------|
Tonight Im finding a way....

Interlude:
e|---------------------------------------------------|
B|---------------------------------------------------|
G|------------77777777-------------------------------|
D|--99999999--77777777--777777777777--55555555-(X2)--|
A|--99999999--55555555--777777777777--55555555-------|
E|--77777777------------555555555555--33333333-------|

-Then Second Chorus (X2)
-Then Intros

ĂŽnscrie-te la newsletter


Join the ranks ! LIKE us on Facebook