Six Feet Under The Stars Acoustic Tab - All Time Low




-------------------------------------------------------------------------------
     Six Feet Under The Stars Acoustic
                                       All Time Low
-------------------------------------------------------------------------------
Tabbed by: Thiss Is SAM
Email: smilezhalfdead@aim.com

Before you start this isn't the version that you get if you buy the So Wrong It's Right
of iTunes. This is a version I made because I like acoustic songs and I think this is a
song to be acoustic. You just have to make up your own strumming pattern and play along 
it to see what sounds best. These are just the chords. The tunings half stepped so
can play open chords and it would still be on key with the song on the CD.

Tuning: Half Stepped


Intro

"Time to lay claim to the evidence, finger prints sell me out"

e|--0------------------------------------------------------------------------|
B|--0------------------------------------------------------------------------|
G|--9------------------------------------------------------------------------|
D|--9------------------------------------------------------------------------|
A|--7------------------------------------------------------------------------|
E|--x------------------------------------------------------------------------|

"But our footprints washed away from the docks downtown, it's been getting late for days
I feel myself deserving of"

e|--0------------------------------------------------------------------------|
B|--0------------------------------------------------------------------------|
G|--2------------------------------------------------------------------------|
D|--2------------------------------------------------------------------------|
A|--0------------------------------------------------------------------------|
E|--x------------------------------------------------------------------------|

"A little time off, we can kick it hang for hours and just mouth off about the"

e|--0------------------------------------------------------------------------|
B|--0------------------------------------------------------------------------|
G|--9------------------------------------------------------------------------|
D|--9------------------------------------------------------------------------|
A|--7------------------------------------------------------------------------|
E|--x------------------------------------------------------------------------|

"world, and how we know it's going straight to hell"

e|--0------------------------------------------------------------------------|
B|--0------------------------------------------------------------------------|
G|--2------------------------------------------------------------------------|
D|--2------------------------------------------------------------------------|
A|--0------------------------------------------------------------------------|
E|--x------------------------------------------------------------------------|

"Pass me another bottle, honey, the Jaeger's so sweet

e|--0---------------------------0--------------------------------------------|
B|--0---------------------------0--------------------------------------------|
G|--6---------------------------4--------------------------------------------|
D|--6---------------------------4--------------------------------------------|
A|--4---------------------------2--------------------------------------------|
E|--x---------------------------x--------------------------------------------|

"But if it keeps you around then I'm down"

e|--0--------------------------------------------------------------------------|
B|--0--------------------------------------------------------------------------|
G|--2--------------------------------------------------------------------------|
D|--2--------------------------------------------------------------------------|
A|--0--------------------------------------------------------------------------|
E|--x--------------------------------------------------------------------------|

"Meet me on Thames Street, I'll take you out though I'm hardly worth your time"

e|--0--------------------------------------------------0-----------------------|
B|--0--------------------------------------------------0-----------------------|
G|--9--------------------------------------------------2-----------------------|
D|--9--------------------------------------------------2-----------------------|
A|--7--------------------------------------------------0-----------------------|
E|--x--------------------------------------------------x-----------------------|

"In the cold you look so fierce but I'm warming up, because the tension's like a fire, 
hit"

e|--0---------------------0--------------------------0----------------------|
B|--0---------------------0--------------------------0----------------------|
G|--4---------------------6--------------------------2----------------------|
D|--4---------------------6--------------------------2----------------------|
A|--2---------------------4--------------------------0----------------------|
E|--x---------------------x--------------------------x----------------------|

"South Broadway in a matter of minutes and like a bad movie, I''ll drop a line fall in 
grave"

e|--0--------------------------------------------------0-----------------------|
B|--0--------------------------------------------------0-----------------------|
G|--9--------------------------------------------------2-----------------------|
D|--9--------------------------------------------------2-----------------------|
A|--7--------------------------------------------------0-----------------------|
E|--x--------------------------------------------------x-----------------------|

"I've been digging myself, but there's room for two, six feet under the stars"

e|--0---------------------0--------------------------0----------------------|
B|--0---------------------0--------------------------0----------------------|
G|--4---------------------6--------------------------2----------------------|
D|--4---------------------6--------------------------2----------------------|
A|--2---------------------4--------------------------0----------------------|
E|--x---------------------x--------------------------x----------------------|

"Should have known better than to call you out (on a night like this, a night like this)"

e|--0-------------------------------------------0------------------------------|
B|--0-------------------------------------------0------------------------------|
G|--9-------------------------------------------2------------------------------|
D|--9-------------------------------------------2------------------------------|
A|--7-------------------------------------------0------------------------------|
E|--x-------------------------------------------x------------------------------|

"If not for you, I know I'd tear this place to the ground (But I'm alright like this, 
like this)

e|--0-------------------------------------------0------------------------------|
B|--0-------------------------------------------0------------------------------|
G|--9-------------------------------------------2------------------------------|
D|--9-------------------------------------------2------------------------------|
A|--7-------------------------------------------0------------------------------|
E|--x-------------------------------------------x------------------------------|

"I'm gonna roll the dice, before you sober up and get gone, I'm always in over my head"

e|--0----------------------------------0---------------------0---------------|
B|--0----------------------------------0---------------------0---------------|
G|--6----------------------------------4---------------------2---------------|
D|--6----------------------------------4---------------------2---------------|
A|--4----------------------------------2---------------------0---------------|
E|--x----------------------------------x---------------------x---------------|

"Meet me on Thames Street, I'll take you out though I'm hardly worth your time"

e|--0--------------------------------------------------0-----------------------|
B|--0--------------------------------------------------0-----------------------|
G|--9--------------------------------------------------2-----------------------|
D|--9--------------------------------------------------2-----------------------|
A|--7--------------------------------------------------0-----------------------|
E|--x--------------------------------------------------x-----------------------|

"In the cold you look so fierce but I'm warming up, because the tension's like a fire, 
hit"

e|--0---------------------0--------------------------0----------------------|
B|--0---------------------0--------------------------0----------------------|
G|--4---------------------6--------------------------2----------------------|
D|--4---------------------6--------------------------2----------------------|
A|--2---------------------4--------------------------0----------------------|
E|--x---------------------x--------------------------x----------------------|

"South Broadway in a matter of minutes and like a bad movie, I''ll drop a line fall in 
grave"

e|--0--------------------------------------------------0-----------------------|
B|--0--------------------------------------------------0-----------------------|
G|--9--------------------------------------------------2-----------------------|
D|--9--------------------------------------------------2-----------------------|
A|--7--------------------------------------------------0-----------------------|
E|--x--------------------------------------------------x-----------------------|

"I've been digging myself, but there's room for two, six feet under the stars"

e|--0---------------------0--------------------------0----------------------|
B|--0---------------------0--------------------------0----------------------|
G|--4---------------------6--------------------------2----------------------|
D|--4---------------------6--------------------------2----------------------|
A|--2---------------------4--------------------------0----------------------|
E|--x---------------------x--------------------------x----------------------|

"Time to lay calim to the evidence, finger prints sell me out but"

e|--0-------------------------------0----------------------------------------|
B|--0-------------------------------0----------------------------------------|
G|--6-------------------------------2----------------------------------------|
D|--6-------------------------------2----------------------------------------|
A|--4-------------------------------0----------------------------------------|
E|--x-------------------------------x----------------------------------------|

"Our footprints washed away, I'm guilty but I'm safe for one more day"

e|--0----------------------------0-------------------------------------------|
B|--0----------------------------0-------------------------------------------|
G|--9----------------------------4-------------------------------------------|
D|--9----------------------------4-------------------------------------------|
A|--7----------------------------2-------------------------------------------|
E|--x----------------------------x-------------------------------------------|

"Overdressed and underage, do you really need to see an ID this is embaracing as hell"

e|--0--------------------------------------------0---------------------------|
B|--0--------------------------------------------0---------------------------|
G|--6--------------------------------------------2---------------------------|
D|--6--------------------------------------------2---------------------------|
A|--4--------------------------------------------0---------------------------|
E|--x--------------------------------------------x---------------------------|

"But I can cover is so well, when we're six feet under the stars"

e|--0-------------------------0----------------------------------------------|
B|--0-------------------------0----------------------------------------------|
G|--9-------------------------4----------------------------------------------|
D|--9-------------------------4----------------------------------------------|
A|--7-------------------------2----------------------------------------------|
E|--x-------------------------x----------------------------------------------|

"Meet me on Thames Street, I'll take you out though I'm hardly worth your time"

e|--0--------------------------------------------------0-----------------------|
B|--0--------------------------------------------------0-----------------------|
G|--9--------------------------------------------------2-----------------------|
D|--9--------------------------------------------------2-----------------------|
A|--7--------------------------------------------------0-----------------------|
E|--x--------------------------------------------------x-----------------------|

"In the cold you look so fierce but I'm warming up, because the tension's like a fire, 
hit"

e|--0---------------------0--------------------------0----------------------|
B|--0---------------------0--------------------------0----------------------|
G|--4---------------------6--------------------------2----------------------|
D|--4---------------------6--------------------------2----------------------|
A|--2---------------------4--------------------------0----------------------|
E|--x---------------------x--------------------------x----------------------|

"South Broadway in a matter of minutes and like a bad movie, I''ll drop a line fall in 
grave"

e|--0--------------------------------------------------0-----------------------|
B|--0--------------------------------------------------0-----------------------|
G|--9--------------------------------------------------2-----------------------|
D|--9--------------------------------------------------2-----------------------|
A|--7--------------------------------------------------0-----------------------|
E|--x--------------------------------------------------x-----------------------|

"I've been digging myself, but there's room for two, six feet under the stars"

e|--0---------------------0--------------------------0----------------------|
B|--0---------------------0--------------------------0----------------------|
G|--4---------------------6--------------------------2----------------------|
D|--4---------------------6--------------------------2----------------------|
A|--2---------------------4--------------------------0----------------------|
E|--x---------------------x--------------------------x----------------------|


Well there you go. It's a fantastic song, though this might be a long tab cause I
the lyrics along with the chords. This is my first tab so tell me how I did!

| /  slide up
|   slide down
| h  hammer-on
| p  pull-off
| ~  vibrato
| +  harmonic
| x  Mute note
===============================================================================

ĂŽnscrie-te la newsletter


Join the ranks ! LIKE us on Facebook