Six Feet Under The Stars Bass Tab - All Time Low




No funky stuff, just straight forward. Pretty easy

"It's time to lay claim to the evidence..."
(No bass)

"But our footprints wash away.."
G--------------------|
D--------------------|
A--------------------|
E-4444444444444444444

"A little time off..."
G----------------------------------|
D----------------------------------|
A-6666666666666666-----------------|
E-----------------4444444444444444-|

"Pass me another bottle honey.."
G--------|
D--------|
A-3~~----|
E----4~~~

"Meet me on..."
G------------------------------------------------|
D------------------------------------------------|
A-66666666666------------------------------------|
E------------44444444444-66666-88888-44444444444-|

Guitar lick thing...
(No bass)

"I should've known better then to call you out.."
G----------------------------------------------|
D----------------------------------------------|
A-6-6-6-6-6-6-----------6-6-6-6-6-6------------|
E------------4-4-4-4-4-4-----------4-4-4-4-4-4-|

"I'm gunna roll the dice..."
G------------------|
D------------------|
A-3-3-3------------|
E------6-6-6-4-4-4-|

"Thames street..."
G------------------------------------------------|
D------------------------------------------------|
A-66666666666------------------------------------|
E------------44444444444-66666-88888-44444444444-|

Bridge

"Time to lay claim to the evidence..."
G---------------------------------------------------------|
D---------------------------------------------------------|
A-33333333333333--------------6666666666666-5555555555555-|
E---------------44444444444444----------------------------|

"Overdressed and underage.."
G---------------------------------------------------------|
D---------------------------------------------------------|
A-33333333333333--------------6666666666666-5555555555555-|
E---------------44444444444444----------------------------|

Slow Chorus
(no bass)

"We'll hit!"
G------------------------------------------------|
D------------------------------------------------|
A-66666666666------------------------------------|
E------------44444444444-66666-88888-44444444444-|

"Six feet under the stars..."
G-----------|
D-----------|
A-------6~~-|
E-4~~6~~----|

ĂŽnscrie-te la newsletter


Join the ranks ! LIKE us on Facebook