The Beach Tab - All Time Low




i know it isnt completely right, but its something to work with.
its guitar 2 i think.

intro:
E|---------------------------------------------------------|
B|---------------------------------------------------------|
G|-------55------------------------------------------------|
D|3--33--55--55-----X 5 or so------------------------------|
A|3--33--33--55--------------------------------------------|
E|1--11------33--------------------------------------------|

verse:
E|---------------------------------------------------------|
B|---------------------------------------------------------|
G|--------5-----------2-----------5-------------22222222---|
D|-3--33--5--5--3--33-2-5--3--33--5--5-33333333322222222-5-|
A|-3--33--3--5--3--33-0-5--3--33--3--5-33333333300000000-5-|
E|-1--11-----3--1--11---3--1--11-----3-111111111---------3-|

chorus:
E|---------------------------------------------------------|
B|---------------------------------------------------------|
G|55555555-------------------------------------------------|
D|55555555-55555555-77777777-33333333-55555555-77777777-X2-|
A|33333333-55555555-77777777-33333333-55555555-77777777----|
E|---------33333333-55555555-11111111-33333333-55555555----|

outro:
E|---------------------------------------------------------|
B|---------------------------------------------------------|
G|--5--55555-------5---------------------------------------|
D|355--55555-5-3-5-5---------------------------------------|
A|353--33333-5-3-5-3---------------------------------------|
E|13---------3-1-3-----------------------------------------|

some parts are missing, but yeh thats all i could work out.

ĂŽnscrie-te la newsletter


Join the ranks ! LIKE us on Facebook