Runes To My Memory (ver5) Tab - Amon Amarth




Amon Amarth  Runes To My Memory

Tabbed by Erik Johnson[lambslayer2766]  www.youtube.com/lambslayer2766

Tuning : [ B E A D F# B] or u can use a seven string which is what I do so it doesnt
so slappy n tune it to the same thing with the top string being B n then so fourth n u
dont use the bottom string for n e thing. If u have n e problems with it I should b 
a video up of me playing it soon so just go to my youtube to see it.

Intro [00:0000:30]  Trem. Pick every note.
||----------------------------------------------------------------|
||----------------------------------------------------------------|
||----------------------------------------------------------------|
||----------------------------------------------------------------|
||----------------------------------------------------------------|
||--8------7--5------------------7----8------1-----3--1--0--------|

 |--------------------------------------------------------------|
 |--------------------------------------------------------------|
 |--------------------------------------------------------------|
 |--------------------------------------------------------------|
 |--------------------------------------------------------------|
 |--5-----7-----8--------7--8-7--5------------------7----8------|

 |------------------------------------------------------||
 |------------------------------------------------------||
 |------------------------------------------------------||
 |------------------------------------------------------||  x2
 |--8------------8--10--8----7--------5-----------------||
 |-----------------------------------------8------------||

Verse [00:31-01:00]
I got this from watching live videos. So might b right or not.
||-------------------------------------------------------------------------|
||-------------------------------------------------------------------------|
||-------------------------------------------------------------------------|
||-------------------------------------------------------------------------|
||-3--------3--------3--------3--------2--------2--------2--------2--------|
||----3--0-----3--0-----3--0-----3--0-----3--0-----3--0-----3--0-----3--0--|
PM    .  .     .  .     .  .     .  .     .  .     .  .     .  .     .  .

 |------------------------------------------------------------------------||
 |------------------------------------------------------------------------||
 |------------------------------------------------------------------------||
 |------------------------------------------------------------------------||
 |-3--------3--------3--------3--------3--------3--------3--------3-------||
 |----1--0-----1--0-----1--0-----1--0-----1--0-----1--0-----1--0-----1--0-||
 PM   .  .     .  .     .  .     .  .     .  .     .  .     .  .     .  .

Pre-Chorus [01:01-01:31] Trem. Pick all the notes.
||-------------------------------------------------------------|
||-------------------------------------------------------------|
||-------------------------------------------5------4--2-------|
||----3------2--0----------------2----3------------------------|
||-------------------------------------------------------------|
||-------------------------------------------------------------|

 |------------------------------------------------------------|
 |------------------------------------------------------------|
 |----------4----5------7--------2------------------4----2----|
 |------------------------------------------------------------|
 |------------------------------------------------------------|
 |------------------------------------------------------------|

 |------------------------------------------------||
 |------------------------------------------------||
 |--4------------------2--------------------------||
 |-------------------------------------5----------|| x2
 |------------------------------------------------||
 |------------------------------------------------||

Chorus [01:32-02:01]
||-----------------------------------------------------------------|
||--10------------13------12--------10----8------10--8-------------|
||-------------------------------------------------------10--------|
||-----------------------------------------------------------------|
||-----------------------------------------------------------------|
||-----------------------------------------------------------------|

 |------------------------------------------------------------------|
 |-------------8----------10------------13-----12--------10----8----|
 |---10-------------------------------------------------------------|
 |------------------------------------------------------------------|
 |------------------------------------------------------------------|
 |------------------------------------------------------------------|

 |--12------------------10---------------------------||
 |---------------------------------------------------||
 |---------------------------------------------------|| x2
 |---------------------------------------------------||
 |---------------------------------------------------||
 |---------------------------------------------------||

Outro Riff [02:02-02:17]    x2
||-------------------------------------------------------------------------------------------||
||-------------------------------------------------------------------------------------------||
||--5--5-5-5-5-5--5-5-5-5-4--4-4-4-4-4--4-4-4-4-2--2-2-2-2-2--2-2-2-2-2--2-2-2-2-2--2-2-2-2--||
||--7--7-7-7-7-7--7-7-7-7-5--5-5-5-5-5--5-5-5-5-3--3-3-3-3-3--3-3-3-3-3--3-3-3-3-3--3-3-3-3--||
||-------------------------------------------------------------------------------------------||
||-------------------------------------------------------------------------------------------||

[02:18-02:48]  Verse x4
[02:49-03:18]  PreChorus x2
[03:18-04:04]  Chorus x3
[04:05-04:19]  Outro x2

Last Riff [04:19-04:32]
||------------------------------------------||
||------------------------------------------||
||--5--5-5-5-5-5--5-5-5-5-4---2--0----------||
||--7--7-7-7-7-7--7-7-7-7-5---3--2----------||
||------------------------------------------||
||------------------------------------------||

ĂŽnscrie-te la newsletter


Join the ranks ! LIKE us on Facebook