Faded White Dress Intro Tab - Amy Meredith






|------------------|   |-----|
|------------------|   |-----|
|------------------|   |-----|
|-7-7-7-7--7-7-7-7-|x3 |-7-7-|(let ring)
|-7-7-7-7--7-7-7-7-|   |-7-7-|
|-5-5-5-5--5-5-5-5-|   |-5-5-|


|-----------------------8--------12---10---8---7----------------|
|-8-10-8-10---8-10-8-10---8-10-8----8----8---8---10-8-10-8-10---|
|-----------9-------------------------------------------------9-|
|---------------------------------------------------------------|
|---------------------------------------------------------------|
|---------------------------------------------------------------|

|-----------8--------12---10---8---7--------------|
|-8-10-8-10---8-10-8----8----8---8---10-8-10-8-10-|
|-------------------------------------------------|
|-------------------------------------------------| (ring out)
|-------------------------------------------------|
|-------------------------------------------------|


This is my first set of tabs, and i think the song sounds best on electric and with 
hammerons, but picking each note is just as good. Hope this helps!

Tim

ĂŽnscrie-te la newsletter


Join the ranks ! LIKE us on Facebook