American Woman (ver2) Tab - Anal Cunt






Artist: Anal c**t
Song: American Woman

Because I couldn't stand the other tab of American Woman and I only tabed this horrible 
in 0.01492 seconds, here are the right tabs.

Turning: EADGBE

clean                                             2x
e|-------------------------------------------------|
B|-------------------------------------------------|
G|-------------------------------------------------|
D|-------------------------------------------------|
A|4--7--9-9-9-9-9--x-9--9-9--4--7--9-9-9-9-9--x-9--|
E|2--5--7-7-7-7-7--x-7--7-7--2--5--7-7-7-7-7--x-7--|

Heavily distored                   rest of the song
e|-------------------------------------------------|
B|-------------------------------------------------|
G|-------------------------------------------------|
D|-------------------------------------------------|
A|4--7--9-9-9-9-9--x-9--9-9--4--7--9-9-9-9-9--x-9--|
E|2--5--7-7-7-7-7--x-7--7-7--2--5--7-7-7-7-7--x-7--|

This is the complete song... Perhaps some variation somewhere in the middle of the song. 
didn't pay any attention to it, actually.

Noud Aldenhoven 

ĂŽnscrie-te la newsletter


Like us on Facebook