American Woman Bass Tab - Anal Cunt






Band- Anal c**t
Song- American Woman

Bass tabs by TheMutts



(this part plays along with the guitar)
|----------------------|
|----------------------|
|----------------------|repeat as needed
|-5-5-4-4-4-4-4-2-0----|


Heavy part

|-------------------|
|-------------------|
|-5-5-4-4-4-4-4-2-0-|repeat as needed
|-5-5-4-4-4-4-4-2-0-|


Interlude

|-------------------------------------------------------------------------------------|
|-------------------------------------------------------------------------------------|
|-------------------------------------------------------------------------------------|
|-5-5-5-5-5-5-5-5-5-5-5-5-5-4-4-4-4-4-4-4-4-4-4-4-2-2-2-2-2-2-2-2-2-2-0-0-0-0-0-0-0-0-|

Ending part

|-----------------|
|-----------------|
|-----------------|
|-5-2-0-0-0-0-4-0-|

ĂŽnscrie-te la newsletter


Like us on Facebook