American Woman Tab - Anal Cunt




Band: Anal c**t
Song: American Woman

Tuning: Standard


Intro (clean)
e|-------------------------------------------------------------------------|
B|-------------------------------------------------------------------------|
G|-------------------------------------------------------------------------|
D|-------------------------------------------------------------------------|
A|-4-4--66666666-4-4-4-4--66666666-4-4-------------------------------------|
E|-2-2--44444444-2-2-2-2--44444444-2-2-------------------------------------|

(heavy distortion)

Main Riff
e|-------------------------------------------------------------------------|
B|-------------------------------------------------------------------------|
G|-------------------------------------------------------------------------|
D|-4-4--66666666-4-4-4-4--66666666-4-4-------------------------------------|
A|-4-4--66666666-4-4-4-4--66666666-4-4-------------------------------------|
E|-2-2--44444444-2-2-2-2--44444444-2-2-------------------------------------|


Extra Fill part
e|-------------------------------------------------------------------------|
B|-------------------------------------------------------------------------|
G|-------------------------------------------------------------------------|
D|-4444-6-----------------------------------------------------------------|
A|-4444-6-----------------------------------------------------------------|
E|-2222-4-----------------------------------------------------------------|

Key

/ = slide up
 = slide down
ĂŽnscrie-te la newsletter


Join the ranks ! LIKE us on Facebook