Art Fag (ver3) Tab - Anal Cunt






-------------------------------------------------------------------------------
     SONG NAME - Band Name
-------------------------------------------------------------------------------
Tabbed by: Kornatemymum (john)
Email: Eye_Eat_Crayons@hotmail.com

Tuning: Drop D
Lots of distortion

Intro: Worst intro ever, just play quite fast.
E|----------------|
B|----------------|
G|----------------|
d|-333333(etc)--4-|
A|-333333(etc)--4-|
D|-333333(etc)--4-|

Verse: If you want to call it that
E|-------------|
B|-------------|
G|-------------|
d|-7-7-7-7---5-|
A|-7-7-7-7-0-5-|
D|-7-7-7-7-0-5-|

Bridge:
E|-------------------------|
B|-------------------------|
G|-------7-6---------------|
d|-7-9-7-7-6--2-2-2-2-2--2-|
A|-7-9-7-5-4--2-2-2-2-2--2-|
D|-7-9-7------2-2-2-2-2--2-|

Part Before the end:
E|----------------|
B|----------------|
G|----------------|
d|-333333(etc)--4-|
A|-333333(etc)--4-|
D|-333333(etc)--4-|

Outro:
E|----------------|
B|----------------|
G|----------------|
d|-333333(etc)--4-|
A|-333333(etc)--4-|
D|-333333(etc)--4-|

There you go, you can now pay a classic.
===============================================================================

ĂŽnscrie-te la newsletter


Like us on Facebook