Art Fag Tab - Anal Cunt




Band: Anal c**t
Song: Art Fag

Tuning: Standard

(heavy distortion)


Intro  (get some feedback and play this..)
e|-------------------------------------------------------------------------|
B|-------------------------------------------------------------------------|
G|-------------------------------------------------------------------------|
D|-3-3-3-3-3-3~-4----------------------------------------------------------|
A|-3-3-3-3-3-3~-4----------------------------------------------------------|
E|-1-1-1-1-1-1~-2----------------------------------------------------------|


Main Riff
e|-------------------------------------------------------------------------|
B|-------------------------------------------------------------------------|
G|-------------------------------------------------------------------------|
D|--555544-2--------------------------------------------------------------|
A|--555544-2--------------------------------------------------------------|
E|--333322-2--------------------------------------------------------------|


Bridge
e|-------------------------------------------------------------------------|
B|-------------------------------------------------------------------------|
G|-------------------------------------------------------------------------|
D|-7--7/11-11--5-5-5-5-----------------------------------------------------|
A|-7--7/11-11--5-5-5-5-----------------------------------------------------|
E|-5--5/9--9---3-3-3-3-----------------------------------------------------|


Heavy metal part (just play this hella times)
e|-------------------------------------------------------------------------|
B|-------------------------------------------------------------------------|
G|-------------------------------------------------------------------------|
D|-4-----------------------------------------------------------------------|
A|-4-----------------------------------------------------------------------|
E|-2-----------------------------------------------------------------------|




Key


/ = slide up
 = slide down
~ = vibrato
ĂŽnscrie-te la newsletter


Join the ranks ! LIKE us on Facebook