Body By Auschwitz Tab - Anal Cunt






From the Album "It Just Gets Worse" (1999)

(Drumstick intro)

D |--------------------------------------|
A |--------------------------------------|
F |--------------------------------------|
C |-3--3-3-3-3--3-3-3-3--3-3-3-3-3-3-3-3-|
G |-3--3-3-3-3--3-3-3-3--3-3-3-3-3-3-3-3-|
D |-1--1-1-1-1--1-1-1-1--1-1-1-1-1-1-1-1-|

D |--------------------------------------|
A |--------------------------------------|
F |--------------------------------------|
C |-4--4-4-4-4--4-4-4-4--4-4-4-4-4-4-4-4-|
G |-4--4-4-4-4--4-4-4-4--4-4-4-4-4-4-4-4-|
D |-2--2-2-2-2--2-2-2-2--2-2-2-2-2-2-2-2-|

D |--------------------------------------|
A |--------------------------------------|
F |--------------------------------------|
C |-3--3-3-3-3--3-3-3-3--3-3-3-3-3-3-3-3-|
G |-3--3-3-3-3--3-3-3-3--3-3-3-3-3-3-3-3-|
D |-1--1-1-1-1--1-1-1-1--1-1-1-1-1-1-1-1-|

D |---------------------------------|
A |---------------------------------|
F |---------------------------------|
C |-2-2-2-2-2-2-2-2-3-3-3-3-3-3-3-3-|
G |-2-2-2-2-2-2-2-2-3-3-3-3-3-3-3-3-|
D |-0-0-0-0-0-0-0-0-1-1-1-1-1-1-1-1-|

Goes into Noise

D |---------------------------------|
A |---------------------------------|
F |---------------------------------|
C |--Play random noise -------------|
G |--up & down the neck-------------|
D |--for the rest of the song-------|

ĂŽnscrie-te la newsletter


Join the ranks ! LIKE us on Facebook