Hey Santa Clause You c**t Bass Tab - Anal Cunt






Anal c**t - Hey Santa Clause you c**t bass tab 

Intro (0:50) 

Verses 
G|-----------------------------------|
D|----------3---2---3---2---0-0------|
A|-3---3------3---3---3---3-----2-2--|
E|---3---3---------------------------|

G|-----------------------------------|
D|----------3---2---3---2---0-0------|
A|-3---3------3---3---3---3-----3----|
E|---3---3---------------------------| 

Bridge 
G|------------------|
D|------------------|
A|-3---3---3---3----|
E|---3---3---3---3--|

danieljamritsch@gmx.at

ĂŽnscrie-te la newsletter


Join the ranks ! LIKE us on Facebook