I Noticed That Youre Gay Tab - Anal Cunt




Band:  Anal c**t
Album: 40 More Reasons to Hate Us
Song:  I Noticed That You're Gay

Version 1.0 - 29.12.2006

Transcribed By: CotyXD
Email: cotyxd@yahoo.com


.  - palm mute           /  - slide up to
  - slide down to       ~  - vibrato
h  - hammer on           b  - Bend
p  - pull off            Suffixes for bend
t  - tap                 f  - full bend    h - half bend
ph - pinched harmonic    q  - quarter bend t - tap bend
*  - see comment         ^  - Hold bend    r release bend
x  - Stuccatto           ~  - vibrato bend
,  - slight palm mute    () - ghost note, sustained note
"  - tremolo note         - Trill

Tuning is somewhere between A and A#

Riff A x4
|---------------------------------------*--------------------------|
|---------------------------------------*--------------------------|
|------------------------------------------------------------------|
|------------------------------------------------------------------|
|-9-9-9---9-9-9-7-7-10--7-7-7-7-7-9-9-9---9-9-12-10--7---7-7-7-7-7-|
|-7-7-7---7-7-7-5-5-8---5-5-5-5-5-7-7-7---7-7-10-8---5---5-5-5-5-5-|

Riff B x1
|------------------------------------------------------------------|
|------------------------------------------------------------------|
|------------------------------------------------------------------|
|------------------------------------------------------------------|
|-111111--1111119-9-12--9-9-9-9-9-111111--111114-12--9---9-9-9-9-9-|
|-9-9-9---9-9-9-7-7-10--7-7-7-7-7-9-9-9---9-9-12-10--7---7-7-7-7-7-|

Riff A x1

Riff C x1
|-----------------------------------------------------------------|
|-----------------------------------------------------------------|
|-----------------------------------------------------------------|
|-----------------------------------------------------------------|
|-5/7-7-7-7-7-7-7-5/7-7-7-7-7-7-7-10/12121212121212-10/1212121212-|
|-3/5-5-5-5-5-5-5-3/5-5-5-5-5-5-5-8-/10101010101010-8-/1010101010-|

Riff A x2
Riff B x1
Riff A x1 (only to the **)

Riff D x1
|------------------------------------------------------|
|------------------------------------------------------|
|------------------------------------------------------|
|------------------------------------------------------|
|-9--107---9---9-9-9-107---9---9-9-9-12-10--7-ring---7-|
|-7--8-5---7---7-7-7-8-5---7---7-7-7-10-8---5--------5-|

ĂŽnscrie-te la newsletter


Join the ranks ! LIKE us on Facebook