Eternity Part 2 Tab - Anathema




"Eternity pt.II"- Anathema

RIFF A
E|------------------------
B|-----13---12--12--------
G|--9----------------9/14-
D|------------------------
A|------------------------
E|------------------------
RIFF B
E|----------------------
B|--5-------------------
G|----7--5--------------
D|---------7------------
A|------------7--5--7---
E|----------------------
  _ _ _ _ _ _ _ _ _ _ _ _ ( palm muting)

RIFF C
E|--------------------
B|-----13-----12------
G|--9------9-----9/14-
D|--------------------
A|--------------------
E|--------------------



RIFF D (Background guitar) clean tone

E|------------------------0--
B|-----------0---------------
G|-----5------------5-------- (repeat)
D|--------7------------7-----
A|--0------------0-----------
E|---------------------------

TAB by Thirdeye

ĂŽnscrie-te la newsletter

Join the ranks ! LIKE us on Facebook