Alexithymia Bass Tab - Anberlin






Alexithymia
Anberlin
Cities

Tuning: Dropped D- (G D A D-)

tabbed by Allstatecello

 Intro / Verse 1 (x7)
G  ----------------------------------------------------|
D  ----------------------------------------------------|
A  ----------------------------------------------------|
D- -10-10--10-10-8-10----6-6--8-8--8-8-6-8---8-6-8-8-8-|
    ^ ^
   tens


 Chorus (2x)
G  -----------------------------------------|
D  -----------------------------------------|
A  -----------------------------------------|
D- -10-10-10-10-10---6-6-6-6-6----8 (x16) -|

 Verse 2 (4x)
G  -----------------------------------------------------|
D  -----------------------------------------------------|
A  -2-2-2-0-2-5-4-2-----------------5-------------5-----|
D- -------------------6-6-6-6-6-6-6---6-8-8-6-8-8---8-8-|
    ^             ^
    |             |
     Alternate Fingering
   ( G  ------------------------ )
   ( D  ------------------------ )
   ( A  ------------------------ )
   ( D- -10-10-10-8-10-13-12-10- )


G  -----------------|
D  -----------------|
A  -----------5-4---|
D- ---8-8-6-8-----8-|

      ^           ^
      |           |
     Alternate Fingering
   ( G  ----------------- )
   ( D  ----------------- )
   ( A  ----------------- )
   ( D- -8-8-6-8-13-12-8- )


 Chorus (4x)
G  -----------------------------------------|
D  -----------------------------------------|
A  -----------------------------------------|
D- -10-10-10-10-10---6-6-6-6-6----8 (x16) -|


 Bridge
G  ------------------|
D  ------------------|
A  -----------2----4-|
D- -1----3-----------|


 Guitar Solo / Breakdown ( 2x)
 (Note: All notes 16x in this section)
G  ------------------|
D  ------------------|
A  -----------2------|
D- -1----3---------0-|


Chorus (4x)
G  -----------------------------------------|
D  -----------------------------------------|
A  -----------------------------------------|
D- -10-10-10-10-10---6-6-6-6-6----8 (x16) -|


 Ending
G  -----------|
D  -----------|
A  -----------|
D- -6---6---6-|

ĂŽnscrie-te la newsletter


Like us on Facebook