Amsterdam Tab - Anberlin






Tabbed by: Julian Stevenson
Email: jaws_da_man@hotmail.com

Not all the song... the 'pre-chorus' is a b***h to figure out. 
But I shall attempt to complete the whole song eventually.

Intro + Verses

Guitar 1

|-----------------------------------||
|-----------------------------------||
|-----------------------------------||
|-----------------------------------||x13
|--------9-----------9---------9----||
|--6-7-7---7-7-6-7-7---7-7-6-7---7--||

Then after Guitar 1 has been 4 times

Guitar 2

|------------------------------------------------||
|------------------------------------------------||
|--11-------11-------11-------11-------11--------||
|-----11-------11-------11-------11-------11-----||x10
|--------14-------14-------14-------14-------14--||
|------------------------------------------------||

These two riffs play throughout most of the song.

Solo

|------------------[--------------------]--||
|------------------[--------------------]--||
|------------------[---11-----11------11]--||
|--11/1311-9-8-6-8[-8----8-9----9-11---]--||
|------------------[--------------------]--||
|------------------[--------------------]--||
                   [    play 8 times    ]

|----------------------------------||
|----------------------------------||
|----------------------------------||
|--11/1311-9-8-9-8-6---6----------||
|---------------------9---9--------||
|---------------------------7-6-7--||

|-----------------------------||
|--------------------------7--||
|------------------------6----||      
|------------4---4-6-8-6------||
|--------4-6---6--------------||
|--4-6-7----------------------||

|-----------------------------------||
|-----------------------------------||
|--8/98----------------------------||
|--------8/98-6/86-6-4---------4--||
|------------------------------4----||
|------------------------4-6-7------||

|----------------------------------------------||
|--12-11---------------------------------------||
|--------13-11---------------------------------||
|--------------13-11/1311---------------------||
|--------------------------14-13/1413-11-9-9--||
|----------------------------------------------||

Well have fun, i'll keep trying to figure the pre chorus, but until then this is all I
can give you...have fun, and keep rocking!!

ĂŽnscrie-te la newsletter


Like us on Facebook