Dismantle Repair Chords - Anberlin






OK, like the third tab Ive ever done? and Im not that great at it so Im ready for the 
on this one, Im sure some of its wrong. and I havent figured out the pre chorus yet, 
its similar to the intro. GREAT SONG, so enjoy it!


INRO:
    One last glance from....
eb |----------------------------------------------------------|
Bb |----------------------------------------------------------|
Gb |----------------------------------------------------------|
Db |--------2-2-2---------2-2-2---------6-6-6---------6-6-6---|
Ab |-----2-------------2-------------6-------------6----------|
Eb |--0-------------0-------------4-------------4-------------|

CHORUS:

      Hands, like secrets, are...      Lines and phrases, like knives...
eb |--------------------------------------------------------|
Bb |--------------------------------------------------------|
Gb |--6--------------------------------8--------------------|
Db |--7--------------------------------9--------------------|
Ab |--7--------------------------------9--------------------|
Eb |--5--------------------------------7--------------------|


      Dismantle me down (repair)...    You dismantle me...
eb |--4--------------------------------0--------------------|
Bb |--5--------------------------------0--------------------|
Gb |--6--------------------------------1--------------------|
Db |--6--------------------------------2--------------------|
Ab |--4--------------------------------2--------------------|
Eb |--4--------------------------------0--------------------|

BRIDGE:
                     Save me from myself
eb |--5--------------7--------------4-----------------------|
Bb |--5--------------7--------------5-----------------------|
Gb |--6--------------8--------------6-----------------------|
Db |--7--------------9--------------6-----------------------|
Ab |--7--------------9--------------4-----------------------|
Eb |--5--------------7--------------4-----------------------|

ĂŽnscrie-te la newsletter


Like us on Facebook