Dismantle Repair Tab - Anberlin






Tuning: C

I'm not gonna put every little stroke down, I think you guys can figure that out on your
Have fun!

Intro/Verse

D|-------------------------------------------------------------|
A|-------------------------------------------------------------|
F|-------0-----0-----0----0------------------------------------|
C|------5-5---5-5---5-5--5-5-----------------------------------|
G|-----3-----3-----3----3--------------------------------------|
C|----3-----3-----3----3---------------------------------------|

I don't know what count the other guitar does this on, but sometimes he'll sneak this in
the Intro/Verse, so listen for it:

D|----------------------------------------------------------|
A|----------------------------------------------------------|
F|----5-----------------------------------------------------|
C|---5-5----------------------------------------------------|
G|--3-------------------------------------------------------|
C|-3--------------------------------------------------------|

Pre Chorus: Play the slide the first time only!
  * Also, play the stuff in parenthesis on the 4th count *
D|----------------------------------------------------------|
A|----------------------------------------------------------|
F|----------------------------------------------------------|
C|------3-5--3-----3--5--3------(5~)------------------------|
G|------3----3--5--3-----3-5----(3~)------------------------|
C|-12--3----3-----3-----3---0--(3~)------------------------|

Chorus:

Guitar 1:
D|----------------------------------------------------------|
A|----------------------------------------------------------|
F|----------------------------------------------------------|
C|-8--10--0--3----------------------------------------------|
G|-8--10--0--3----------------------------------------------|
C|-8--10--0--3----------------------------------------------|

Guitar 2:
D|----------------------------------------------------------|
A|-------13---------13-------13-----------------------------|
F|-------------------------------12h14p12-------------------|
C|-12h15------12h15----12h15--------------------------------|
G|----------------------------------------------------------|
C|----------------------------------------------------------|

Second Verse is a little different, you have two things going on:

Guitar 1:
D|-------------------------------------------------------------|
A|-------------------------------------------------------------|
F|----0-----0-----0----0---------------------------------------|
C|---5-5---5-5---5-5--5-5--------------------------------------|
G|--3-----3-----3----3-----------------------------------------|
C|-3-----3-----3----3------------------------------------------|

Guitar Two: The second guitar comes in a little after he sings "Call This A Prelude..." 
Mute It *
D|---------------------------------------------------------|
A|---------------------------------------------------------|
F|---------------------------------------------------------|
C|-3--7----------------------------------------------------|
G|-3--7----------------------------------------------------|
C|-3--7----------------------------------------------------|

The interlude is hard to hear... here's what i got from it, though:

Guitar 1:
D|----------------------------------------------------------|
A|----------------------------------------------------------|
F|----------------------------------------------------------|
C|--8--10--12-----------------------------------------------|
G|--8--10--12-----------------------------------------------|
C|--8--10--12-----------------------------------------------|

Guitar 2 - This one's really hard to hear... I know he's hitting three strings, but i
only make out two of them:
D|----------------------------------------------------------|
A|--6--6--6--6--6--6--6--6----------------------------------|
F|---7--7--7--7--7--7--7--7---------------------------------|
C|----------------------------------------------------------|
G|----------------------------------------------------------|
C|----------------------------------------------------------|

Then back to the prechorus:

D|----------------------------------------------------------|
A|----------------------------------------------------------|
F|----------------------------------------------------------|
C|------3-5--3-----3--5--3------(5~)------------------------|
G|------3----3--5--3-----3-5----(3~)------------------------|
C|-12--3----3-----3-----3---0--(3~)------------------------|

Then end with the chorus:

Guitar 1:
D|----------------------------------------------------------|
A|----------------------------------------------------------|
F|----------------------------------------------------------|
C|-8--10--0--3----------------------------------------------|
G|-8--10--0--3----------------------------------------------|
C|-8--10--0--3----------------------------------------------|

Guitar 2:
D|----------------------------------------------------------|
A|-------13---------13-------13-----------------------------|
F|-------------------------------12h14p12-------------------|
C|-12h15------12h15----12h15--------------------------------|
G|----------------------------------------------------------|
C|----------------------------------------------------------|

There it is guys! Sorry about the laziness, i just think a guitar tab shouldn't take
than actually figuring out the song! If you have questions, please post them in the comment
Also, i need some feed back on the interlude; what is he playing?! Have fun guys!

ĂŽnscrie-te la newsletter


Like us on Facebook