Haunting (ver2) Tab - Anberlin






-------------------------------------------------------------------------------
     Haunting - Anberlin
-------------------------------------------------------------------------------
Tabbed by:Tom
Email:tremondelli@comcast.net

Tuning: Standard (EADGBe)
Note: if it doesn't sound correct, try tuning down a 1/4 step.

-=I have not created tabs in awhile so please try to bear with me. Thanks!=-

---Intro/Verse---

e--x--x--x--|
B--3--x--3--|
G--2--4--2--|
D--0--4--0--|
A--x--2--0--|
E--3--x--x--|

---Chorus---

e--x--x--|--x--x--|
B--x--3--|--x--3--|
G--5--2--|--4--2--|
D--5--0--|--4--0--|
A--3--0--|--2--0--|
E--x--x--|--x--x--|

---Guitar #2 (may be wrong but this is what i got)---

---Chorus---

e--x--x--x--|--x--x--x--x--x--x--x--x--x--x--|-------|--x-----x-----x-----x-|   
B--8--7--8--|--10-8--10-8--10-8--10-10-10-10-|repeat)|--8(8x)-7(8x)-x-----x-|
G--x--x--x--|--x--x--x--x--x--x--x--x--x--x--|-------|--x-----x-----9(8x)-7(8x)
D--x--x--x--|--x--x--x--x--x--x--x--x--x--x--|-------|--x-----x-----x-----x-|
A--x--x--x--|--x--x--x--x--x--x--x--x--x--x--|-------|--x-----x-----x-----x-|
E--x--x--x--|--x--x--x--x--x--x--x--x--x--x--|-------|--x-----x-----x-----x-|


---Verse---

| h  hammer-on
| p  pull-off

e--x--x--x--x--x--x--x-----x--|
B--0--8--7--0--8--7--7h8p7-x--|
G--x--x--x--0--x--x--x-----9--|
D--x--x--x--x--x--x--x-----x--|
A--x--x--x--x--x--x--x-----x--|
E--x--x--x--x--x--x--x-----x--|


Enjoy!

===============================================================================








ĂŽnscrie-te la newsletter


Like us on Facebook