Unwinding Cable Car Bass Tab - Anberlin






---------------------------------------
Unwinding Cable Car  Anberlin  Cities
---------------------------------------

Tabbed By : kstar19
e-mail: gopered@hotmail.com

Tuning: drop D

No Bass till 3:42  

G|-------------------------|
D|--------------------21---|
A|444--222-222----000---42-|
D|---24--------24----------|

G|-------------------------|
D|--------------------21---|
A|444--222-222----000---4~-|
D|---24--------24----------|

No More Bass  

Short and sweet.  Enjoy.
========================

ĂŽnscrie-te la newsletter


Like us on Facebook