Unwinding Cable Car Tab - Anberlin






This is a simple but awesome song. I've put in the changes so its pretty much perfect 
To sound exactly like the album track you need a 12 string to play the lead guitar, but 
guitar sounds fine.
Enjoy.

  C#  B   A
  0   0   0
  0   0   0
  6   4   2
  6   4   2
  4   2   0
  x   x   x

Intro:
Guitar 1
e|-0-------0----------|
B|---4---4---4---4----|
G|-----6-------6------|  x8
D|--------------------|
A|--------------------|
E|--------------------|

Guitar 2
e|--------------------------------------------------------------------|
B|--------------------------------------------------------------------|
G|-------9-8-6--------------------------------------9-8-6-----9-8-6---|
D|----6--------9--------------11----------9---------------9---------9-|
A|--4---------------------9-----------7-------------------------------|
E|--------------------7-----------5-----------------------------------|

Guitar 1: C# B  A

Guitar 2:
e|------------------------------------|
B|------------------------------------|
G|-9-8-6------------------------------|     x2
D|-------9---2--4/-6---2-2/4-/6-------|
A|------------------------------4-/(2)|  

ĂŽnscrie-te la newsletter


Like us on Facebook