We Want Fun Tab - Andrew W K




-------------------------------------------------------------------------------
     We Want Fun - Andrew W K
-------------------------------------------------------------------------------

Tabbed by: Jacob Green
Email: revelation45@hotmail.com

Tuning:Standard  
| ~  vibrato|

intro 2x                    4x
e|-------------------------|-------------------------|
B|-------------------------|-------------------------|
G|-99-88-66-44-22----------|-99-88-66-44-------------|
D|----------------66-44-99-|-99-88-66-44-77-66-44-99-|
A|-------------------------|-77-66-44-22-77-66-44-99-|
E|-------------------------|-------------55-44-22-77-|

intro cont.2x                                      1x
e|------------|--|--------------------------------||------------|
B|------------|--|--------------------------------||-99-88-66-44|
G|-9999-------|2x|--------------------------------||------------|
D|-9999-77767-|--|11-11-11-9-77767-999-999-999-999||------------|
A|-7777-77767-|--|11-11-11-9-77767-999-999-999-999||------------|
E|------55545-|--|-9-9--9--7-55545-777-777-777-777||------------|

verse
e|------------------------|--|------------|--|--------------------------------|
B|------------------------|--|------------|--|--------------------------------|
G|-99-88-66-44------------|4x|------------|2x|------9-8-6-4-------------------|
D|-99-88-66-44-77-66-44-99|--|-7--9--2--6-|--|7--9--9-8-6-4--7-999-999-999-999|
A|-77-66-44-22-77-66-44-99|--|-7--9--2--6-|--|7--9--7-6-4-2--7-999-999-999-999|
E|-------------55-44-22-77|--|-5~-7~-0~-4~|--|5~-7~----------5-777-777-777-777|

chorus
e|------------|--|--------------------------------|
B|------------|--|--------------------------------|
G|-9999-------|2x|--------------------------------|
D|-9999-77767-|--|11-11-11-9-77767-999-999-999-999|
A|-7777-77767-|--|11-11-11-9-77767-999-999-999-999|
E|------55545-|--|-9-9--9--7-55545-777-777-777-777|

e|------------|--|--------------|
B|------------|--|--------------|
G|-9999-------|2x|-99-88-66-44--|
D|-9999-77767-|--|-99-88-66-44-7|
A|-7777-77767-|--|-77-66-44-22-7|
E|------55545-|--|-------------5|

For between the first chorus and second verse just play the first part of the
verse. 
For the outro play the first of the verse then the last of the chorus,
end on A7. Enjoy.


===============================================================================

ĂŽnscrie-te la newsletter


Join the ranks ! LIKE us on Facebook