Crystal Ann Tab - Annihilator






Annihilator - Crystal Ann

tabbed by
ol753_357lo@yahoo.co.uk

Tuning - Eb Ab Db Gb Bb Eb


Gtr 1
play twice
|-------0-1p0-----------0-1p0--------|
|-----3-------3-------3-------3------|
|---2-----------2---3-----------3----|
|-0---------------0------------------|
|------------------------------------|
|------------------------------------|


Gtr 2
2nd time
|------|
|-6----|
|-5----|
|-0----|
|-0----|
|------|


Both Gtrs
play twice
|-------0-1p0-----------0-1p0--------|
|-----3-------3-------3-------3------|
|---2-----------2---3-----------3----|
|-0---------------0------------------|
|------------------------------------|
|------------------------------------|


Both Gtrs
play twice
|-------0-1p0-----------0-1-0h1p0-----------0-1p0----------------------|
|-----3-------3-------3-----------3-------3-------3---------3-------3--|
|---2-----------2---2---------------2---0-----------0-----0-------0----|
|-0-----------------------------------------------------0-------0------|
|-----------------3-------------------2---------------1-------3--------|
|----------------------------------------------------------------------|


Gtr 3
play twice
|---5-3h5p3-------3-5--5-3h5p3-------3-5--5-3h5p3-------3-5-6-5-3---5-3------|
|-----------6-5-6--------------6-5-6--------------6-5-6-----------6-----6----|
|-------------------------------------------------------------------------6--|
|----------------------------------------------------------------------------|
|----------------------------------------------------------------------------|
|----------------------------------------------------------------------------|

Gtr 4
play twice
|---8-6h8p6---------6-8--8-6h8p6---------6-8--8-6h8p6---------6-8-10-8-6----8-6-------|
|-----------10-8-10--------------10-8-10--------------10-8-10------------10-----10----|
|----------------------------------------------------------------------------------9--|
|-------------------------------------------------------------------------------------|
|-------------------------------------------------------------------------------------|
|-------------------------------------------------------------------------------------|


Both Gtrs
play 4 times
|-------0-1p0-----------0-1p0--------|
|-----3-------3-------3-------3------|
|---2-----------2---3-----------3----|
|-0---------------0------------------|
|------------------------------------|
|------------------------------------|


Gtr 3
|------------------------------------------------------|
|-----------------------------2-3-5-3-2---3-2----------|
|---------------2-3-2-3-5-3-5-----------5-----5-3-2----|
|-0-2-3-0-2-3-5----------------------------------------|
|------------------------------------------------------|
|------------------------------------------------------|


|-----5-10p5-8p5-----8p5---8---------------------------|
|---6------------6-5-----8---8-6-5---5h6p5---5----6----|
|-7--------------------------------7-------7---7-------|
|------------------------------------------------------|
|------------------------------------------------------|
|------------------------------------------------------|


|-5-----------5-----------5---5--6--/8--5--------8---5---|
|----8p6p5-------8p6p5------8------------------6---------|
|----------7-----------7---------------------------------|
|--------------------------------------------------------|
|--------------------------------------------------------|
|--------------------------------------------------------|


|------5----------------|
|--------8-6h8p6--------|
|----7-----------9-7----|
|-7---------------------|
|-----------------------|
|-----------------------|


Both Gtrs
play twice
|-------0-1p0-----------0-1p0-----------0-1-0h1p0------------------------|
|-----3-------3-------3-------3-------3-----------3---------3-------3----|
|---2-----------2---2-----------2---0---------------0-----0-------0------|
|-0-----------------------------------------------------0-------0--------|
|-----------------3---------------2-------------------1-------3----------|
|------------------------------------------------------------------------|


Gtr 3
play twice
|-5-3h5p3-------3-5--5-3h5p3-------3-5--5-3h5p3-------3-5-6-5-3---5-3------|
|---------6-5-6--------------6-5-6--------------6-5-6-----------6-----6----|
|-----------------------------------------------------------------------6--|
|--------------------------------------------------------------------------|
|--------------------------------------------------------------------------|
|--------------------------------------------------------------------------|


Gtr 4
play twice
|-8-6h8p6---------6-8--8-6h8p6---------6-8--8-6h8p6---------6-8-10-8-6----8-6-------|
|---------10-8-10--------------10-8-10--------------10-8-10------------10-----10----|
|--------------------------------------------------------------------------------9--|
|-----------------------------------------------------------------------------------|
|-----------------------------------------------------------------------------------|
|-----------------------------------------------------------------------------------|


Both Gtrs
play 4 times
|---------------------------------------------------------------------|
|---------0---0-----------0---0---------2-----------------------------|
|-----8---------8-----8---------8-----2---2---2---------2-------------|
|---6---6---6-------6---6---6-------2-------2---2-----6---6-------4---|
|-4---------------4---------------0-----------------4-------4-4h6-----|
|-------------------------------------------------2-------------------|


Gtr 3
play twice
                                               *flamenco picking
|-4---4---------0---0---0---------4---------0------|
|---------7---4-------4---------------7---4---7*---|
|---6---6---6-----6-------6-----6---6---6-----8----|
|--------------------------------------------------|
|--------------------------------------------------|
|--------------------------------------------------|


|-----4---------0---0---0---------4---------0--------------|
|---------7---4-------4---------------7---4-------9-/12----|
|---6---6---6-----6-------6-----6---6---6-------8----------|
|---------------------------------------------6------------|
|----------------------------------------------------------|
|----------------------------------------------------------|

Gtr 4
|-4---4---------0---0---0---------4---------0------|
|---------7---4-------4---------------7---4---7*---|
|---6---6---6-----6-------6-----6---6---6-----8----|
|--------------------------------------------------|
|--------------------------------------------------|
|--------------------------------------------------|


|-----4---------0---0---0---------4---------0----------------|
|---------7---4-------4---------------7---4--------12-/16----|
|---6---6---6-----6-------6-----6---6---6-------11-----------|
|---------------------------------------------9--------------|
|------------------------------------------------------------|
|------------------------------------------------------------|


|-----------|
|-----16----|
|-/13-------|
|-----------|
|-----------|
|-----------|


|-----4---------0---0---0---------4---------0------|
|---------7---4-------4---------------7---4---7*---|
|---6---6---6-----6-------6-----6---6---6-----8----|
|--------------------------------------------------|
|--------------------------------------------------|
|--------------------------------------------------|


|-----4---------0---0---0---------4---------0----------------|
|---------7---4-------4---------------7---4--------12-/16----|
|---6---6---6-----6-------6-----6---6---6-------11-----------|
|---------------------------------------------9--------------|
|------------------------------------------------------------|
|------------------------------------------------------------|


Both Gtrs
play twice
|-------0-1p0-----------0-1p0-----------0-1-0h1p0------------------------|
|-----3-------3-------3-------3-------3-----------3---------3-------3----|
|---2-----------2---2-----------2---0---------------0-----0-------0------|
|-0-----------------------------------------------------0-------0--------|
|-----------------3---------------2-------------------1-------3----------|
|------------------------------------------------------------------------|


Gtr 3
play twice
|-5-3h5p3-------3-5--5-3h5p3-------3-5--5-3h5p3-------3-5-6-5-3---5-3------|
|---------6-5-6--------------6-5-6--------------6-5-6-----------6-----6----|
|-----------------------------------------------------------------------6--|
|--------------------------------------------------------------------------|
|--------------------------------------------------------------------------|
|--------------------------------------------------------------------------|

Gtr 4
play twice
|-8-6h8p6---------6-8--8-6h8p6---------6-8--8-6h8p6---------6-8-10-8-6----8-6-------|
|---------10-8-10--------------10-8-10--------------10-8-10------------10-----10----|
|--------------------------------------------------------------------------------9--|
|-----------------------------------------------------------------------------------|
|-----------------------------------------------------------------------------------|
|-----------------------------------------------------------------------------------|


Both Gtrs
play 3 times
|-------0-1p0-----------0-1p0--------|
|-----3-------3-------3-------3------|
|---2-----------2---3-----------3----|
|-0---------------0------------------|
|------------------------------------|
|------------------------------------|


Gtr 3
|-6-5-3----------------------------------------|
|-------6-5-3----------------------------------|
|-------------5-3-2-------2h3p2p0-2-3-5-3-2----|
|----------------------------------------------|
|----------------------------------------------|
|----------------------------------------------|


*sweeps

   *            *           *
|-----5-10---------5-8---------5-7--7----|
|---6------------6-----------6-----------|
|-7------------7-----------7-------------|
|----------------------------------------|
|----------------------------------------|
|----------------------------------------|


|-5-6-5h6p5--------------5-10p5---5--------|
|-----------8-6-5------6--------6---6-5----|
|-----------------7--7---------------------|
|------------------------------------------|
|------------------------------------------|
|------------------------------------------|


Both Gtrs
|-------0--3---0----------------1----|
|-----2------------2------------3----|
|---3-------------------3-------2----|
|-2-----------------------------0----|
|-------------------------------0----|
|------------------------------------|


Gtr 3
|------------8--6---5------------------|
|-5-6-8-8S10---------------------------|
|-----------------------6-------6h7----|
|--------------------------------------|
|--------------------------------------|
|--------------------------------------|


Tablature Legend
----------------
 h   - hammer-on
 p   - pull-off
 b   - bend
 pb  - pre-bend
 r   - bend release (if no number after the r, then release immediately)
 /  - slide into or out of (from/to "nowhere")
 s   - legato slide
 S   - shift slide
  - natural harmonic
[n]  - artificial harmonic
n(n) - tapped harmonic
 ~   - vibrato
 tr  - trill
 T   - tap
 TP  - trem. picking
 PM  - palm muting
n/  - tremolo bar dip; n = amount to dip
 n  - tremolo bar down
 n/  - tremolo bar up
/n  - tremolo bar inverted dip
 =   - hold bend; also acts as connecting device for hammers/pulls
   - volume swell (louder/softer)
 x   - on rhythm slash represents muted slash
 o   - on rhythm slash represents single note slash

Misc Legend
-----------
 |  - bar
||  - double bar
||o - repeat start
o|| - repeat end
*|  - double bar (ending)
 :  - bar (freetime)
 $  - Segno
 &  - Coda
Tempo markers -  = BPM(8/16=s8/s16), where s8 = swing 8ths, s16 = swing 16ths

ĂŽnscrie-te la newsletter


Like us on Facebook