King Of The Kill (ver2) Tab - Annihilator






Annihilator - King of the kill
Drop D
Its really fast and for the first-time-players i got the tipp that you have to work
up and down strokes in the main riff, you will soon get it! if your arms are muscellous
try it only with down strokes ;) its really cool stuff!!!

Intro:
3 Times

e|----------------------------------------------------------------------------|
h|----------------------------------------------------------------------------|
g|----------------------------------------------------------------------------|
d|----------------------------------------------------------------10-12-(12)-|
a|----------------------------------------------------------------10-12-(12)-|
d|12-10-0-12-10-0-12-10-0-6-5-0-3-5-0-0-12-10-0-12-10-0-12-10-0-0-10-12-(12)-|
   x  x x  x  x x  x  x x x x x x x x x  x  x x  x  x x  x  x x x

Then:
1 Time

e|----------------------------------------------------------------------------|
h|----------------------------------------------------------------------------|
g|----------------------------------------------------------------------------|
d|----------------------------------------------------------------------------|
a|---------------------------------------------------------12----------------|
d|12-10-0-12-10-0-12-10-0-6-5-0-5-3-0-0-12-10-0-12-10-0-12-12----------------|
   x  x x  x  x x  x  x x x x x x x x x  x  x x  x  x x  o

Well, thats the first part, the next four times you have to play the first Intro Riff,
the main riff in the song... The four times after that Jeff sings and of course you have
play the riff again! After that;


Chorus:
2 Times

e|----------------------------------------------------------------------------|
h|----------------------------------------------------------------------------|
g|----------------------------------------------------------------------------|
d|3-5-0-3-5-0-3-5-3-0-------------3-5-0-3-5-0-3-2-1---------------------------|
a|3-5-0-3-5-0-3-5-3-0-------------3-5-0-3-5-0-3-2-1---------------------------|
d|3-5-0-3-5-0-3-5-3-0-0-0-0-0-0-0-3-5-0-3-5-0-3-2-1-0-0-0-0-0-0---------------|
                      x x x x x x                   x x x x x x
                                                    only @ 1st time

Now the main riff 6 Times
Then Chorus 2 Times again
And now the bridge;


Bridge:
The whole Part (you will hear it if you dont understand the following part) you have to play
4 Times

e|-------------------|   3 Times, then: |--------------------|
h|-------------------|                  |--------------------|
g|-------------------|                  |--------------------|
d|------6-6---------|                  |--------------------|
a|------6-6---------|                  |------5-3-0---------|
d|0-0-0-6-6---------|                  |5-3-0-------5-3-----|
  x x x                                  x x x x x x x x


After that session play the Chorus 2 Times and the Bridge 4 Times again!
[When you play Bridge the first time a solo is playing by the 2nd Guitar.
Im sorry but I cant really figure it out, but often times therere only the basic
octaved.... Find it out... With WahWah ;) ]
Now play the main riff 2 Times and the Chorus for 4 Times.
After the last Chorus is Played, play the main riff the last 4 Times!

ĂŽnscrie-te la newsletter


Like us on Facebook