Phoenix Rising (ver2) Tab - Annihilator




#----------------------------------PLEASE NOTE---------------------------------#
#This file is the author's own work and represents their interpretation of the #
#song. You may only use this file for private study, scholarship, or research. #
#------------------------------------------------------------------------------##
(If anyone would like to use these tabs for commercial use ie. Websites etc.
                 please seek permission as copyrights are held)

Annihilator - Phoenix Rising

tabbed by ol753
www.annihilatormetal.com
ol753_357lo@yahoo.co.uk

Tuning - E A D G B E


Gtr 1
|---|-------------0-------------------------------0----------------------|
|---|-------6-------6-----------------------6-------6-----------6p5------|
|---|-----0---0---------5-------5---------0---0---------5----------------|
|---|---7-------7-----8---8---8---8-----7-------7-----8---8---8----------|
|-5-|-5---------------------5-------5-5---------------------5-------5----|
|---|--------------------------------------------------------------------|


Both Gtrs
|-------------0-------------------------------0---5----|
|-------6-------6-----------------------6-------6-6----|
|-----0---0---------5-------5---------0---0-------5----|
|---7-------7-----8---8---8---8-----7-------7-----8----|
|-5---------------------5-------5-5---------------5----|
|------------------------------------------------------|


Verse
Both Gtrs
play 3 times
|-------------0-------------------------------0----------------------|
|-------6-------6-----------------------6-------6-----------6p5------|
|-----0---0---------5-------5---------0---0---------5----------------|
|---7-------7-----8---8---8---8-----7-------7-----8---8---8----------|
|-5---------------------5-------5-5---------------------5-------5----|
|--------------------------------------------------------------------|


4th time
|-------------0-------------------------------0----------------------|
|-------6-------6-----------------------6-------6-----------6p5------|
|-----0---0---------5-------5---------0---0---------5-----------5----|
|---7-------7-----8---8---8---8-----7-------7-----8---8---8----------|
|-5---------------------5-------5-5---------------------5------------|
|--------------------------------------------------------------------|


Chorus
Both Gtrs
|------------------------------------|
|------------------------------------|
|-----5-----5---------5-----5--------|
|---5-----5-----5---5-----5-----5----|
|-8-----8-----8---7-----7-----7------|
|------------------------------------|


|-------------0----------------------|
|-------6-------6-----------6p5------|
|-----0---0---------5-----------5----|
|---7-------7-----8---8---8----------|
|-5---------------------5------------|
|------------------------------------|


|------------------------------------|
|------------------------------------|
|-----5-----5---------5-----5--------|
|---5-----5-----5---5-----5-----5----|
|-8-----8-----8---7-----7-----7------|
|------------------------------------|


|-------------0-------------------------------0---5----|
|-------6-------6-----------------------6-------6-6----|
|-----0---0---------5-------5---------0---0-------5----|
|---7-------7-----8---8---8---8-----7-------7-----8----|
|-5---------------------5-------5-5---------------5----|
|------------------------------------------------------|


Repeat Verse
Repeat Chorus


Both Gtrs
play 4 times, Gtr 3 Lead (to be added)
|-------9-----7---------7-----6---------6-----4---------4-------6----|
|-----0---0-----0-----0---0-----0-----0---0-----0-----0-------0------|
|---8-------8-------6-------6-------4-------4-------4-------6--------|
|-6---------------4---------------2---------------2-------4----------|
|--------------------------------------------------------------------|
|--------------------------------------------------------------------|


Both Gtrs
|--------12------11---------7-----6---------0-----0---------0-----0------|
|------0----0-------0-----0---0-----0-----0---0-----0-----0---0-----0----|
|---11--------11--------6-------6-------8-------8-------8-------8--------|
|-9-------------------4---------------6---------------6------------------|
|------------------------------------------------------------------------|
|------------------------------------------------------------------------|


|--------12------11---------7-----6---------4-----4---------4------------|
|------0----0-------0-----0---0-----0-----0---0-----0-----0-------0------|
|---11--------11--------6-------6-------4-------4-------4-------6--------|
|-9-------------------4---------------2---------------2-------4----------|
|-------------------------------------------------------------------5----|
|------------------------------------------------------------------------|


Both Gtrs
|-------------0-------------------------------0----------------------|
|-------6-------6-----------------------6-------6-----------6p5------|
|-----0---0---------5-------5---------0---0---------5-----------5----|
|---7-------7-----8---8---8---8-----7-------7-----8---8---8----------|
|-5---------------------5-------5-5---------------------5------------|
|--------------------------------------------------------------------|


Repeat Chorus


Gtr 1
play 3 times
|---0-----------------0---------3----|
|-----3-------3-----3---3-----3------|
|-------2---2-----2---------3--------|
|-0-------5-----3---------5----------|
|------------------------------------|
|------------------------------------|


4th time
|---0-----------------0------------3---0----|
|-----3-------3-----3---3-------3------3----|
|-------2---2-----2----------3---------2----|
|-0-------5-----3---------5------------0----|
|-------------------------------------------|
|-------------------------------------------|


Gtr 2
play 3 times
|---0-----------------0---------6----|
|-----6-------6-----6---6-----6------|
|-------5---5-----5---------7--------|
|-0-------8-----7---------8----------|
|------------------------------------|
|------------------------------------|


4th time
|---0-----------------0------------6---0----|
|-----6-------6-----6---6-------6------6----|
|-------5---5-----5----------7---------5----|
|-0-------8-----7---------8------------0----|
|-------------------------------------------|
|-------------------------------------------|


Tablature Legend
----------------
 h   - hammer-on
 p   - pull-off
 b   - bend
 pb  - pre-bend
 r   - bend release (if no number after the r, then release immediately)
 /  - slide into or out of (from/to "nowhere")
 s   - legato slide
 S   - shift slide
  - natural harmonic
[n]  - artificial harmonic
n(n) - tapped harmonic
 ~   - vibrato
 tr  - trill
 T   - tap
 TP  - trem. picking
 PM  - palm muting
n/  - tremolo bar dip; n = amount to dip
 n  - tremolo bar down
 n/  - tremolo bar up
/n  - tremolo bar inverted dip
 =   - hold bend; also acts as connecting device for hammers/pulls
   - volume swell (louder/softer)
 x   - on rhythm slash represents muted slash
 o   - on rhythm slash represents single note slash

Misc Legend
-----------
 |  - bar
||  - double bar
||o - repeat start
o|| - repeat end
*|  - double bar (ending)
 :  - bar (freetime)
 $  - Segno
 &  - Coda
Tempo markers -  = BPM(8/16=s8/s16), where s8 = swing 8ths, s16 = swing 16ths
ĂŽnscrie-te la newsletter


Join the ranks ! LIKE us on Facebook