Legions Tab - Antimatter






Artist: Antimatter
Album: Planetary Confinements
Song: Legions


note: this tab is under construction i think...
-----------------------------------------------------------------

standard tuning w/ capo on 2

Bm    Bm/D  G/D
-----|---|------|
-1---|-1-|-1----|
-2---|-2-|-2----|
-2---|-2-|-3----|
-0---|-3-|-3----|
-----|---|------|

all the song play this

  X4X4
------------|-------------|
------1-----|-------1-----|
-----2----2-|------2---2--|
---2--------|----2--------|
-0----------|--3----------|
------------|-------------|
stony and gray...


in the chorus  make things like that

  X4X4
------0-----|-------0------|
------1-----|-------1------|
-----2----2-|------2----2--|
---2--------|----2---------|
-0----------|--3-----------|
------------|--------------|
legions and hordes....

at the end only play this, the timing, well hear the song

BmG/D
-----|-------|
-1---|--1----|
-2---|--2----|
-2---|--3----|
-0---|--3----|
-----|-------|
...if you wanna see the sun again...


transcribed by angelofdark@hotmail.com
any suggestion please...
all welcome






Like us on Facebook