Koneeseen Kadonnut Tab - Apulanta






Apulanta-Koneeseen kadonnut


E|--------------------------------------------------------------|
H|--------------------------------------------------------------|
G|--------------------------------------------------------------|
D|---------------12h14----------------15---14---12--------------|
A|-0-0-15-0-14-0-------0-15-0-14--0-0----0----0----0-15-0-14h15-|
E|--------------------------------------------------------------|
                              A.H.
E|--------------------------------------------------------------|
H|--------------------------------------------------------------|
G|--------------------------------------------------------------|
D|---------------12h14----------------15---14---17--------------| 2x
A|-0-0-15-0-14-0-------0-15-0-14--0-0----0----0----0--17--0-15--|
E|--------------------------------------------------------------|
                              A.H.                        A.H.

Skeist
Am
Koneeseen kadonnutta
Dm
ei voi takaisin saada
Am
Kulutettu kytetty
Dm
ruokkimaan ympyr

Am
Luotettu ehk liikaa
Dm
siihen ett aika korjaa
Am
se mink vuoksi nhtiin
Dm
niin kovin paljon vaivaa


 Dm  Am
E-5-|-5-|
H-6-|-5-|
G-7-|-5-|
D-7-|-7-|
A-5-|---|
E-5-|---|

Dm             Am      Dm                  Am
Ett hajalle saatiin, se mik kauniiksi tarkoitettiin..

E------------|
H-8888-------|
G-7777-------|
D-------7777-|
A-------7777-|


Kertose
  Am      F      G
e|-5-|  |-1-|  |-3-|
H|-5-|  |-1-|  |-3-|
G|-5-|  |-2-|  |-4-|
D|-7-|  |-3-|  |-5-|
A|-7-|  |-3-|  |-5-|
E|-5-|  |-1-|  |-3-|


Am
Kipu kuolee huutamalla
F
alastomana lattialla
G
Miten kauan sit kest
F        G(A.H)
ei, sit ei voi tiet
Am
Kehen sattuu ja kuinka paljon
F
siit kysymys en tss kai on
G      A        H      C     D
Kun on saavuttu siihen pisteeseen
F
ettei mikn ole varmaa

E|--------------------------------------------------------------|
H|--------------------------------------------------------------|
G|--------------------------------------------------------------|
D|---------------12h14----------------15---14---12--------------|
A|-0-0-15-0-14-0-------0-15-0-14--0-0----0----0----0-15-0-14h15-|
E|--------------------------------------------------------------|
                              A.H.
E|------------------------------------------------------------|
H|------------------------------------------------------------|
G|------------------------------------------------------------|
D|---------------12h14----------------15---14---17---14-------| 2x
A|-0-0-15-0-14-0-------0-15-0-14--0-0----0----0----0----0-15--|
E|------------------------------------------------------------|
                              A.H.                        A.H.


Skeist

Am
Maailman pisimmt tunnit
Dm
niiden otteeseen j kiinni
Am
Niit kantaa loppuun asti
Dm
vaikka itse ei aina huomaa
Am
Millainen on se taivas
Dm
jota  ei lydetty koskaan
Am
Olen kuullut paljon siit
Dm
osan jopa omasta suustani

Dm                Am     Dm               Am
Voi niin pitklle jaksaa kun itsellens vakuuttaa

E--------------|
H-7/8888-------|
G-6/7777-------|
D--------7777--|
A--------7777--|


Kertose

Lopussa A5 j soimaan

H5    H5
Joku meist on onneton
H5    H5
palanut mutta tunnoton
H5    H5
katuva mutta uskoton
H5    H5
enemmn kuin rauhaton


H5
Periaate on ehdoton
C5
perustelu on aukoton
D5
yhtl ehk mahdoton
E5   F5      G5      A5
Miten niin muka armoton?

H5
Miten niin muka armoton?
C5
Miten niin muka armoton?
D5
Miten niin muka armoton?
E5
Miten niin muka armoton?

A5
Kipu kuolee huutamalla, alastomana lattialla
G5                      F5       G5
Miten kauan sit kest ei, sit ei voi tiet

Kertose

E|--------------------------------------------------------------|
H|--------------------------------------------------------------|
G|--------------------------------------------------------------|
D|---------------12h14----------------15---14---12--------------|
A|-0-0-15-0-14-0-------0-15-0-14--0-0----0----0----0-15-0-14h15-|
E|--------------------------------------------------------------|
                              A.H.
E|------------------------------------------------------------|
H|------------------------------------------------------------|
G|------------------------------------------------------------|
D|---------------12h14----------------15---14---17---14-------|
A|-0-0-15-0-14-0-------0-15-0-14--0-0----0----0----0----0-15--|
E|------------------------------------------------------------|
                              A.H.                        A.H.
E|-----------------------------|
H|-----------------------------|
G|-----------------------------|
D|-17---14-------17---14-------|
A|----0----0-15-----0----0-15--|
E|-----------------------------|
             A.H.          A.H.






Like us on Facebook