Cosmic Retribution Acoustic Solo Tab - Arch Enemy






ARCH ENEMY- COSMIC RETRIBUTION ACOUSTIC SOLO
ITS NOT 100% BUT ITS VERY CLOSE ENJOY!!


d|---------------------------------------------------------------------------|
a|--10--1010--10-12-13-12-10-------------------------------------------------|
f|--9---9-9------------------12-10-10-12-------------------------------------|
c|--7---7-7------------------------------10---12/14--12-10-7-5-2-------------|
g|---------------------------------------------------------------3-2---------|
c|-------------------------------------------------------------------9-------|


d|---------------------------------------------------------------------------|
a|---------------------------------------------------------------8-10-12-----|
f|--------------------------------------------------------7-9-10-------------|
c|----------------------------7-9-10-10-9-7-10-9-7-7-9-10--------------------|
g|---------------------7-8-10------------------------------------------------|
c|--7-9-10-9-7-10-9-7--------------------------------------------------------|
                                                (TREMOLO PICK LAST NOTES)

d|-10-9-7--------------22\-20\-19\-18\-17~~-----------12-13-15---1517~~-|
a|--------10-8-1012---21\-18\-17\-16\-15~~--12-13-15--------------------|
f|---------------------------------------------------------------------------|
c|---------------------------------------------------------------------------|
g|---------------------------------------------------------------------------|
c|---------------------------------------------------------------------------|
 TABBED BY RYAN BUNYAN QUESTIONS EMAIL- MOTOX52@HOTMAIL.com  HAVE FUN

ĂŽnscrie-te la newsletter


Like us on Facebook