Despicable Heroes Tab - Arch Enemy






tuning is drop c...(#)=harmonic. play certain stuff as power chords to make it sound cooler...

Riff One:

|-------------------------------------------------|
|-------------------------------------------------|
|-------------------------------------------------|
|---------------4-1-----3---------------5-4-------|
|-----5h6p5------------------5h6p5--------------6-|
|-0-0-------0-0-----0-0---0-0-------0-0-----0-0---|
PM* *       * *     * *   * *       * *     * *

and...

|-------------------------------------------|
|-------------------------------------------|
|-------------------------------------------|
|---------------41-----3--------------4-5-5-|
|-----5h6p5------------------5h6p5----2-3-3-|
|-0-0-------0-0----0-0---0-0-------0-0------|
PM* *       * *    * *   * *       * *

Riff Two:

|------------------------------------------------------------------|
|------------------------------------------------------------------|
|------------------------------------------------------------------|
|-------------------0-0-0-1-1-4-4--------------------0-0-0-1-1-4-4-|
|------------------------------------------------------------------|
|--0-0-0-1-1-1-4-4-4---------------0-0-0-1-1-1-4-4-4---------------|

|---------------------------------|
|---------------------------------|
|-5-5-5-2-2-2-5-5-5-2-2-2-5-5-2-2-|
|---------------------------------|
|---------------------------------|
|---------------------------------|

Riff Three:

|-----------------------------|
|-----------------------------|
|-----------------------------|
|-----------------------------|
|-----------------------------|
|-0-0-0-0-0-0-0-0-0-0-0-0-(5)-|

do that lots^

yay. i kick much a*s...

ĂŽnscrie-te la newsletter


Like us on Facebook