Enter The Machine Tab - Arch Enemy






- Enter the machine
- Arch Enemy
- Standard tuning
- This is just the lead guitar, and it's not perfect but it's already something.
- There's also some effect on the guitar that I don't know, something like a flanger or something.

INTRO: (keep playing this until 0:30)
e|-----------------------------------------------------------------|
B|---1---3---1---3---1---3---1---3---------------------------------|
G|-0---0---0---0---0---0---0---0-----------------------------------|
D|-----------------------------------------------------------------|
A|-----------------------------------------------------------------|
E|-----------------------------------------------------------------|

VERSE (keep playing this)
e|-----------------------------------------------------------------|
B|---1---3---1---3-------3-------3---------------------------------|
G|-0---0---0---0---0-5-0---0-5-0-----------------------------------|
D|-----------------------------------------------------------------|
A|-----------------------------------------------------------------|
E|-----------------------------------------------------------------|

"SOLO part"
e|-----------------------------------------------------------------|
B|-8-------4h6-8-9-6--------4h6-8---------4h6-8-9-6----------------|
G|-----5h7--------------5h7-----------5h7--------------------------|
D|-----------------------------------------------------------------|
A|-----------------------------------------------------------------|
E|-----------------------------------------------------------------|

e|-----------------------------------------------------------------|
B|----4h6-8-------4h6-8-9-6----6-8-4-----2/4---4/6----6------------|
G|5h7---------5h7--------------------------------------------------|
D|-----------------------------------------------------------------|
A|-----------------------------------------------------------------|
E|-----------------------------------------------------------------|

Well that's it I think, I'll figure the other guitar out some other time.




ĂŽnscrie-te la newsletter


Like us on Facebook