I Will Live Again Intro Tab - Arch Enemy






-------------------------------------------------------------------------------
     I Will Live Again - Arch Enemy
-------------------------------------------------------------------------------

Tabbed by: xerox_666

It's only the intro of this song, from the new disc Rise of the Tyrant.
I'm not sure if this is good.


e|----------18--16---14-13------13--------------14---16---18-13--------------|
B|---------------------------16---------16-----------------------------------|
G|--15-----------------------------------------------------------------------|
D|---------------------------------------------------------------------------|
A|---------------------------------------------------------------------------|
E|---------------------------------------------------------------------------|

e|-----18-16---14-13-----13--------------14---16---18-13---------------------|
B|--------------------16------------16---------------------------------------|
G|--15-----------------------------------------------------------------------|
D|---------------------------------------------------------------------------|
A|---------------------------------------------------------------------------|
E|---------------------------------------------------------------------------|

ĂŽnscrie-te la newsletter


Like us on Facebook