Intermezzo Liberte (ver2) Tab - Arch Enemy




|------------------------------|
|arch enemy- intermezzo liberte|
|------------------------------|

|by kizzle141
|tuning: drop d
|song: awesome

my first tab and my first song to learn, but it was great. im basically doing this so i 
print it and send it to my friend to learn it.

i didnt bother with the tuning, so its just in drop d
enjoy

t=trill
h=hammer on
p=pull off
~=let ring
=slide down
/=slide up
w=whammy down
w/=whammy up

|----------------------------------------------------------------------|
|--------------13------------------------------------------------------|
|14-12-14-16-12--14h16p14-12-14-12-12h14p129-9-12-97-5/7-5-7-5-0-2---|
|----------------------------------------------------------------------|
|----------------------------------------------------------------------|
|-------------------------------------------------------------------5b7|
                                                                   bend
|-----------------------------------------------12-12-13p12p10---------|
|-------5-5-6p5p3-------6-5h6p5h6p5~-10-10h12h13-----------------------|
|2-2h4h5---------2-2h4h5-----------------------------------------------|
|----------------------------------------------------------------------|
|----------------------------------------------------------------------|
|----------------------------------------------------------------------|
         whammy down
|-----------17-17w|
|10-10h12h13-------|
|------------------|
|------------------|
|------------------|
|------------------|

|----------------------------------------------------------------------|
|-------8-8-9p8p6-------9-9-11-9-8-------/8-8-9-8-6---------6-5-3-5----|
|5-5-7-8---------3-3-5-7----------1-1-3-5----------4-4-5-7-4-----------|
|----------------------------------------------------------------------|
|----------------------------------------------------------------------|
|----------------------------------------------------------------------|
  pinch
  harmonic
|-8-6-4-4h6h8p4-1-3-3h4h6p3/9-8p6h8-13h15h16p13-13h15h16/18p16p15p13h15|
|6---------------------------------------------------------------------|
|----------------------------------------------------------------------|
|----------------------------------------------------------------------|
|----------------------------------------------------------------------|
|----------------------------------------------------------------------|
          trill
|dunno----16t16t16t16t16t16t16t16t13t13t16t16t13t13t16t16t13t16...-----|
|this------------------------------------------------------------------|
|part-----------------------working on the rest of the solo guys-------|
|yet----------------------------bear with me please--------------------|
|----------------------------------------------------------------------|
|----------------------------------------------------------------------|
                                                              pinch
                                                              harmonics
|------------------------------------------------------------8-10-11-13|
|-------8-8-9p8p6-------9-9-8-6-8-------/8-8-9-8-6---------------------|
|5-5-7-8---------3-3-5-7----------1-1-3-5----------4-4-5-7-4-----------|
|----------------------------------------------------------------------|
|----------------------------------------------------------------------|
|----------------------------------------------------------------------|
  trill alot
|20-t20-w/22...--------------------------------------------------------|
|---------------12some riff im working it out-12...--------------------|
|----------------------------------------------------------------------|
|----------------------------------------------------------------------|
|----------------------------------------------------------------------|
|----------------------------------------------------------------------|

|----------------------------------------------------------------------|
|21-18h20p1816-20-16h18p1615-18-15h16p1512-13~----------------------|
|----------------------------------------------------------------------|
|----------------------------------------------------------------------|
|----------------------------------------------------------------------|
|----------------------------------------------------------------------|

and the song ends in an awesome riff and its a great song. i hope this helps some 
it would have helped me

ĂŽnscrie-te la newsletter


Join the ranks ! LIKE us on Facebook