Rise Of The Tyrant Intro Tab - Arch Enemy






ARCH ENEMY! Here's the intro for Rise of the Tyrant. Now somebody who is good at tabbing 
please hop to it and start tabbing this stuff!

|---------------------------------------------------------------|
|---------------------------------------------------------------|
|---------------------------------------------------------------|
|-------2------2-2-3-3-------2-----2-2-1-1--------2-----2-2-3-3-|
|---------------------------------------------------------------|
|-0-000---0-0----------0-000---0-0----------0-000---0-0---------| x3
1st ending (natural harmonics, galloped)
|----------------------------------------|
|----------------------------------------|
|----------------------------------------|
|-[3][3][3][3]-[3][3][3][3]-[3][3][3][3]-|
|-[3][3][3][3]-[3][3][3][3]-[3][3][3][3]-|
|-[3][3][3][3]-[3][3][3][3]-[3][3][3][3]-|
2nd and 3rd ending (muted heavy) not 100% sure on this part
|---------------------------------|
|---------------------------------|
|---------------------------------|
|---------------------------------|
|-4-444-4-444-5-555-7-777-5-555-4-|
|-2-222-2-222-3-333-5-555-3-333-2-|
And then...
|------------|
|------------|
|------------|
|-3--3--3--3-|
|-3--3--3--3-|
|-1--1--1--1-|
ONE TWO THREE FOUR!
Singing starts with that intro part as the verse and it goes into other parts that I 
figured out yet.
However the part after the solo is something like
|---------------------------------------------|
|---------------------------------------------|
|---------------------------------------------|
|---------------------------------------------|
|-----7-8---7-8---7-8-10-8-----7-8---7-8--0/3-|
|-0-0-----0-----0----------0-0-----0-----0--1-|

ĂŽnscrie-te la newsletter


Like us on Facebook