We Will Rise Bass Tab - Arch Enemy






Arch Enemy- We Will Rise
Bass Tabs
Tuning- Drop C (CGCF)


Intro/Chorus

F|------------------------------------------------------------------------|
C|------------------------------------------------------------------------|
G|------------------------------------------------------------------------|
C|-000000-888888-555555-777777--------------------------------------------|


Verse (0:25)

F|------------------------------------------------------------------------|
C|------------------------------------------------------------------------|
G|-5-5-55-55-5-55-5-1-1-11-11-1-11-1--------------------------------------|
C|-----------------------------------5-55-55-5-55-5-1-1-11-11-1-1111------|

F|-----------------------------------------------------------------------|
C|-----------------------------------------------------------------------|
G|---------------------------------------------------6-6-66-66-6-665-----|
C|0-0-00-00-0-00-0-6-6-66-66-6-66-6-5-5-55-55-5-55-5---------------------|


Riff 1 (0:42)

F|-----------------------------------------------------------------------|
C|-----------------------------------------------------------------------|
G|----------5---3---------3-3h5-----6---3---------3-3h6------------------|
C|-15/--0-0---0---0-5-3-1-------0-0---0---0-3-1-0------------------------|

Pre-Chorus (0:50)-

F|----------------------------------------------------------------------|
C|----------------------------------------------------------------------|
G|---------------3h6---------------3h5----------------5h8---------------|
C|0000000000005h7---0000000000005h7----0000000000005h7----000000000---r-|


Chorus (0:59)

F|------------------------------------------------------------------------|
C|------------------------------------------------------------------------|
G|------------------------------------------------------------------------|
C|-000000-888888-555555-777777--------------------------------------------|


Verse (1:16)

F|------------------------------------------------------------------------|
C|------------------------------------------------------------------------|
G|-5-5-55-55-5-55-5-1-1-11-11-1-11-1--------------------------------------|
C|-----------------------------------5-55-55-5-55-5-1-1-11-11-1-1111------|

F|-----------------------------------------------------------------------|
C|-----------------------------------------------------------------------|
G|---------------------------------------------------6-6-66-66-6-665-----|
C|0-0-00-00-0-00-0-6-6-66-66-6-66-6-5-5-55-55-5-55-5---------------------|

Riff 1 (1:32)

F|-----------------------------------------------------------------------|
C|-----------------------------------------------------------------------|
G|----------5---3---------3-3h5-----6---3---------3-3h6------------------|
C|-15/--0-0---0---0-5-3-1-------0-0---0---0-3-1-0------------------------|


Pre-Chorus (1:41)

F|----------------------------------------------------------------------|
C|----------------------------------------------------------------------|
G|---------------3h6---------------3h5----------------5h8---------------|
C|0000000000005h7---0000000000005h7----0000000000005h7----000000000---r-|


Chorus (1:49)

F|------------------------------------------------------------------------|
C|------------------------------------------------------------------------|
G|------------------------------------------------------------------------|
C|-000000-888888-555555-777777--------------------------------------------|


 Guitar Solos (2:06)

F|------------------------------------------------------------------------|
C|3333333333333333--------------------------------------------------------|
G|-----------------4444444444444444-6666666666666666-3333333366443311-----|
C|------------------------------------------------------------------------|

F|------------------------------------------------------------------------|
C|------------------------------------------------------------------------|
G|-----------------4444444444444444-6666666666666666-333333-3/66666666----|
C|3333333333333333--------------------------------------------------------|


(2:23)

F|------------------------------------------------------------------------|
C|-----------------------------------------------------------77777777-----|
G|5555555555555555-7777777777777777---------------------------------------|
C|----------------------------------8888888888888888-77777777-------------|

Eb|7777777777777777------------------5555555555555555---------55555555----|
Bb|-----------------8888888888888888------------------77777777------------|
F |-----------------------------------------------------------------------|
C |-----------------------------------------------------------------------|


Riff 1 (2:43)

F|-----------------------------------------------------------------------|
C|-----------------------------------------------------------------------|
G|----------5---3---------3-3h5-----6---3---------3-3h6------------------|
C|-15/--0-0---0---0-5-3-1-------0-0---0---0-3-1-0----------r-------------|


Chorus 3 (2:57)

F|------------------------------------------------------------------------|
C|------------------------------------------------------------------------|
G|------------------------------------------------------------------------|
C|-000000-888888-555555-777777--------------------------------------------|

ĂŽnscrie-te la newsletter


Like us on Facebook