Borrowed Time Tab - Architects




-------------------------------------------------------------------------------
     Borrowed Time - Architects
-------------------------------------------------------------------------------
Tabbed by: Oscar
Email:manuel1753@sbcglobal.net

Tuning: Open C#
                                                                               
c#|---------------------------------------------------------------------------|
G#|-----------------------------------------------------0-0-0-----------------|
 E|-----------------------------------------------------0-0-0-----------------|
 B|---4/54--4--4-4---4/54--4--4-4---4/8-8-8-8-8-85-5-5-5-5-----------------|
F#|---2/32--2--2-2---2/32--2--2-2---2/6-6-6-6-6-63-3-3-3-3-----------------| 
C#|---------------------------------------------------------------------------|
                                                                               x2
c#|---------------------------------------------------------------------------|/
G#|-----------------------------------------------------0-0-0-----------------|
 E|-----------------------------------------------------0-0-0-----------------|
 B|---4/54--4--4-4---4/54--4--4-4---2-2-2-2-2-2-4-4-4-4-4-4-----------------|
F#|---2/32--2--2-2---2/32--2--2-2---0-0-0-0-0-0-2-2-2-2-2-2-----------------| 
C#|---------------------------------------------------------------------------|

c#|---------------------------------------------------------------------------|
G#|--------------------------------------------------0-0-0--------------------|
 E|--------------------------------------------------0-0-0--------------------|
 B|--4--4-4-------4/54/8-8-8------4--4-4------8-8-85-5-5--------------------|x2
F#|--2--2-2-72---2/32/6-6-6------2--2-2---2--6-6-63-3-3--------------------|
C#|-----------0---------------------------7
ĂŽnscrie-te la newsletter


Join the ranks ! LIKE us on Facebook