Absolutely No Decorum Bass Tab - ARK




Song title:Absolutely No Decorum
Band:The Ark
Album:Prayer For The Weekend
Tabbed By Ludvig Wikstrm
Tuning:Standard

Intro
G|-------|----------------|----------------|----------------|----------------|
D|-------|----------------|----------------|----------------|----------------|
A|-3---3-|----------------|----------3---3-|----------------|----------3---3-|
E|-------|--3---3---3-3-3-|3---3-3---------|--3---3---3-3-3-|3---3-3---------|

|----------------|----------------|----------------|----------------|
|----------------|----------------|----------------|----------------|
|----------------|----------------|--7---7---7-7-7-|7---7-7---3---3-|
|--3---3---3-3-3-|3---3-3---5---5-|----------------|----------------|

Verse 
|----------------|----------------|----------------|----------------|
|----------------|----------------|----------------|----------------|
|----------------|----------3---3-|----------------|----------3---3-|
|--3---3---3-3-3-|3---3-3---------|--3---3---3-3-3-|3---3-3---------|
                                                                     
|----------------|----------------|----------------|----------------|
|----------------|----------------|----------------|----------------|
|----------------|----------------|--7---7---7-7-7-|7---7-7---3---3-|
|--3---3---3-3-3-|3---3-3---5---5-|----------------|----------------|

|----------------|----------------|----------------|----------------|
|----------------|----------------|----------------|----------------|
|----------------|----------3---3-|----------------|----------3---3-|
|--3---3---3-3-3-|3---3-3---------|--3---3---3-3-3-|3---3-3---------|
                                                                     
|----------------|----------------|----------------|----------------|
|----------------|----------------|----------------|----------5---5-|
|----------------|----------------|--7---7---7-7-7-|7---7-7---------|
|--3---3---3-3-3-|3---3-3---5---5-|----------------|----------------|

Bridge1
|----------------|----------------|----------------|----------------|
|----------------|----------------|----------------|----------------|
|-3-3-3-3-3-3-3-3|-3-3-3-3-3-3-3-3|-5-5-5-5-5-5-5-5|-5-5-5-5-5-5-5-5|
|----------------|----------------|----------------|----------------|

|----------------|----------------|----------------|----------------|
|----------------|----------------|-------101010---|--101010----1010|
|-7-7-7-7-7-7-7-7|-7-7-7-7-7-7-7-7|-8-8-8-------8-8|8-------8-8-----|
|----------------|----------------|----------------|----------------|

Chorus
|----------------|----------------|----------------|----------------|
|----------------|----------------|----------------|----------------| 
|----------------|----------3---3-|----------------|----------2---2-|  
|--3---3---3-3-3-|3---3-3---------|--3---3---3-3-3-|3---3-3---------|   
                                                                         >x2
|----------------|----------------|----------------|----------------|   /
|----------------|----------------|----------------|----------------|  /
|--7---7---7---7-|5---5-5---5---5-|--3---3---3---3-|3---3-3---3---3-| /
|----------------|----------------|----------------|----------------|/

|----------------|----------------|----------------|----------------|   
|----------------|----------------|----------------|----------------|  
|--7---7---7---7-|5---5-5---5---5-|--3---3---3---3-|3---3-3---3---3-| 
|----------------|----------------|----------------|----------------|


Then the bass is silence for a while
Then you play along with the drums...
|----------------|----------------|
|----------------|----------------|
|----------------|-7.--7.--73---3-|
|-3.--3.--3.--5.-|----------------|

Verse x1

Bridge2
|----------------|----------------|----------------|----------------|
|----------------|----------------|----------------|----------------|
|-3-3-3-3-3-3-3-3|-3-3-3-3-3-3-3-3|-5-5-5-5-5-5-5-5|-5-5-5-5-5-5-5-5|
|----------------|----------------|----------------|----------------|

|----------------|----------------|----------------|----------------|
|----------------|----------------|-------101010---|--101010----1010|
|-7-7-7-7-7-7-7-7|-7-7-7-7-7-7-7-7|-8-8-8-------8-8|8-------8-8-----|
|----------------|----------------|----------------|----------------|

|----------------|----------------|
|-------101010---|--101010----1010|
|-8-8-8-------8-8|8-------8-8-----|
|----------------|----------------|

Chorus x1

Ending
|----------------|----------------|----------------|----------------|
|----------------|----------------|----------------|----------------| 
|----------------|----------3---3-|----------------|----------3---3-|  
|--3---3---3-3-3-|3---3-3---------|--3---3---3-3-3-|3---3-3---------|   
                                                                         >x2
|----------------|----------------|----------------|----------------|   /
|----------------|----------------|----------------|----------------|  /
|----------------|----------------|--7---7---7-7-7-|7---7-7---3---3-| /
|--3---3---3-3-3-|3---3-3---5---5-|----------------|----------------|/

|----------------|---------....
|----------------|---------....
|----------------|---------....
|-0-0-0-0-0-0-0-0|-0-0-0-0-....


ĂŽnscrie-te la newsletter


Join the ranks ! LIKE us on Facebook