A Thousand Steps Bass Tab - As I Lay Dying




Artist: As I Lay Dying
Song: A Thousand Steps
Album: Frail Words Collapse
By: mikey rodriguez
E-mail: chemical_sunday@yahoo.com
tuning: drop c

* = open

Riff 1
F|--------------------|
C|---76-54----76-54---|
G|-00--0----00--0-----| x4
C|--------------------|

Riff 2 (Hammer all the 9's)
F|------------------------|
C|------------------------|
G|--9-9-9-9-9-9-9-9-------| x2
C|-0-0-0-0-0-0-0-0--------|

Riff 1(back to)
F|--------------------|
C|---76-54----76-54---|
G|-00--0----00--0-----| x4
C|--------------------|

Riff 3
F|-----------------|
C|-----------------|
G|-3254--3254------| x4
C|-----00----00----|

Riff 4
F|-----------------|
C|-----------------|
G|-----------------| x2
C|--0*---0*----0*--|

Riff 5
F|-----------------|
C|-----------------|
G|-----------------|
C|-0000-00-0000-00-|
(Play open till its over)

The End
ĂŽnscrie-te la newsletter


Join the ranks ! LIKE us on Facebook