The Krusher Tab - ASPHYX




____________________________________________________________________________
-ASPHYX - THE KRUSHER from the "Last One on Earth" CD (c) 1992 Century Media
-Transcribed by Chris Myhre. Version 1.0 June 2002
-For questions, corrections, etc email me: bowel_ripper@hotmail.com
-For best print edit the left/right margins in page setup to make the tab fit the sheet
-Tuning: two steps down (1:D, 2:A, 3:F, 4:C, 5:G, 6:D)
-Notation legend: . = (heavy) palm mute; / = slide up;  = slide down; " = tremolopick


1>| * gtr 1 only----------------------x2--riff A--------------------------------------------x4
2>| _(gtr 2: let ring)-----------------|--gtr 1 & 2------------------------------------------|
3>||-----------------------------------|-----------------------------------------------------|
4>|v------*-*--------------------------|-----------------------------------------------------|
5>|2------1-2~----2------3/4-4/5-53-3-|2----2--2--1--2~--------2----2--2--3/4--4/5--53--3--|
6>|0--------------0------1/2-2/3-31-1-|0----0--0---------------0----0--0--1/2--2/3--31--1--|
     .  .     .  .

  |riff B-------------------------------------------x4------|------|------|riff C---------x8
  |--------------------------------------------------|------|------|------|----------------|
  |--------------------------------------------------|repeat|repeat|repeat|----------------|
  |2-----2-----2-----2-----2-----2-------------------|riff A|riff B|riff A|----------------|
  |2-----2-----2-----2-----2-----2-----3/4-4/5-53-3-|------|------|------|----3-------5/8-|
  |0-000-0-000-0-000-0-000-0-000-0-000-1/2-2/3-31-1-|------|------|------|000-1--0000-3/6-|
     ...   ...   ...   ...   ...   ...   ...    ....

  |riff D-------------------------x4-----------------------------------x8------|------|------|
  |--------------------------------|------------------------------------|------|------|------|
  |--------------------------------|------------------------------------|repeat|repeat|repeat|
  |--------------------------------|------------------------------------|riff D|riff C|riff A|
  |----5"--4"----------------------|2-------5-------54--43--3/5--53--|------|------|------|
  |0"----------5"--0"--1"--4"--1"--|0-0000003-00000032--21--1/3--31--|------|------|------|
      ......  ......

  |------|------|----x20 (then fade-out)
  |------|------|------|
  |repeat|repeat|repeat|
  |riff B|riff A|riff C|
  |------|------|------|
  |------|------|------|

Check out my personal tablature page where you can find all my newest tabs:

http://home.no.net/bowelri
ĂŽnscrie-te la newsletter


Join the ranks ! LIKE us on Facebook