300mhz Bass Tab - At the Drive-In






intro
------------.---------------.---|
44-44-44-44-4---44-44-44-44-4---|
--------------------------------|
--------------------------------|
+   +   +   +   +   +   +   +

verse (to follow guitar)
--------------------------------|----|
--------------------------------|----|
3~--------------2~------1--0----|.---|
------------------------------3-|2---|
+   +   +   +   +   +   +   +    +

actual verse (what he really plays)
---^--------5------^--------5---|
---4--4-2-4---2----4--4-2-4---2-|
--------------------------------|
2---------------2---------------|
+   +   +   +   +   +   +   +

prechorus
--------------------------------|
--------------------------------|
3~--------------2~--------------|
--------------------------------|
+   +   +   +   +   +   +   +

--------------------------------|
--------------------------------|
1~------------------------------|
--------------------------------|
+   +   +   +   +   +   +   +

chorus
---------------------------------|
4-444444431-----7-777777766655h6-|
-----------31013-----------------|
---------------------------------|
+   +   +   +   +   +   +   +

backword bridge
---------------------------------|
---------------------------------|
2---3---0~-----------------------|
---------------------------------|
+   +   +   +   +   +   +   +

---------------------------------|
---------------------------------|
3---2----------------------------|
--------2~-----------------------|
+   +   +   +   +   +   +   +

crazy chorus (right after bridge)
----------------------------------|
----------------------------------|
----------------------------------|
2-2-2-2-2-2-2-2-2-2-2-2-2-2-2-2-2-|
+   +   +   +   +   +   +   +

----------------------------------|
----------------------------------|
----------------------------------|
5-5-5-5-5-5-5-5-5-5-5-5-5-5-5-5-5-|
+   +   +   +   +   +   +   +

crazy verse
--------------------------------|
--------------------------------|
3-3-3-3-3-3-3-3-2-2-2-2-1--0----|
------------------------------3-|
+   +   +   +   +   +   +   +

--------------------------------|
--------------------------------|
--------------------------------|
2---2-22-22-2-0-2---2-22-22-2-0-|
+   +   +   +   +   +   +   +

ending
----|----|----|----|----|
----|----|----|----|>---|
3~--|2~--|1~--|0~--|.---|
----|----|----|----|2---|

i guess you could call this more difficult to play
than most atd-i song, just cause its hard to hear
the bass sometimes.  Once you get it it's easy though
the (actual) verse riff is difficult for a couple
minutes.  I put the "follow guitar" verse in just
so you know what the chords are, and it sounds like
they overdub the two basslines.  At the ending,
all the notes are whole notes.

order:
intro x1
actual verse x6
prechorus x1
intro x1
actual verse x6
prechorus x1
intro x2
chorus x2
bridge x6
crazy chorus x 2
crazy verse x2
ending x1






Like us on Facebook