Blue Tag Tab - At the Drive-In






Band - At The Drive-In
Song - Blue Tag

Tuning: Standard

e|-------------------------------------------|
B|-------------------------------------------|
G|-------------------------------------------|
D|---------------------9---------------------|
A|-------9-9-9---------------------------9---|
E|--0-0---------10-10-----0--33-555-77----10-|

e:-----------------------------------------------------------|
B:-----15-15-15-----13-13-13-----12-12-12-12-12-12-12-12-12--|
G:-----14-14-14-----11-11-11-----11-11-11-11-11-11-11-11-11--|
D:-----12-12-12-----10-10-10-----9 -9 -9 -9 -9 -9 -9 -9 -9 --|
A:-----------------------------------------------------------|
E:-----------------------------------------------------------|

Chorus:
e:---x--|--x --|--x--|--x--|
B:---x--|--x --|--x--|--x--|
G:---x--|--x --|--x--|--6--|
D:---0--|--12--|--x--|--6--|
A:---1--|--9 --|--5--|--4--|
E:---3--|--10--|--1--|--x--|






Like us on Facebook