Catacombs Bass Tab - At the Drive-In






 (0:14)    9 times 
G|----------------|
D|----------------|
A|S---S---S---S---|
E|x---x---x---x---|


{note: every time there is a "0-0" or a "3-3" 
{on the low E or A it's a dotted 8th note then a 
{16th.

verse
(0:30)       3 times
|-----------------------------------|
|--------------[999]--------*-------|
|---[999]-------------------0-0[222]|
|0-0------10-10------0-0[333]-------|

verse ending   once
|-----------------------------------|
|--------------[999]--------*-------|
|---[999]-------------------0-------|
|0-0------10-10------0-0[333]-------|

(0:44) twice
|----------------rest---------------|
|-----------(guitar thing)----------|
|-----------------------------------|
|-----------------------------------|

(0:51)
|-----------------------------------|
|----------verse-6-times------------|
|-----------------------------------|
|-----------------------------------|

quiet thing
(1:12)       6 times
|-----------------------------------|
|-----------------------------------|
|S-S--------------------------------|
|0-0--------------------------------|

(1:33)
|------------------------------------|
|verse-5-times-then-verse-ending-once|
|------------------------------------|
|------------------------------------|

chorus  
(1:54)       4 times
|-------------------------------------------|
|5-5555-753-------7543-3333-753-------------|
|----------5-5555--------------4-4-444-4-44-|
|-------------------------------------------|

(2:27)
|------------------------------------|
|----------verse-6-times-------------|
|------------------------------------|
|------------------------------------|

(2:47)       4 times
|------------------------------------|
|---------rest-(screaming)-----------|
|------------------------------------|
|------------------------------------|

bridge thing  (probably way off)
(2:56) 3 times
|------------------------|
|------------------------|
|------------------------|
|3-3333x-xxxx1-11110-0000|

|-------------------------------|
|-------------------------------|
|-------------------------------|
|3-3333x-xxxx1-11111-1-111-1-11-| once

(3:09)
|--------------------------------------------|
|--------------chorus-6-times----------------|
|-just-add-some-more-4's-on-the-A-at-the-end-|
|--------------------------------------------|






Like us on Facebook