Chanbara Bass Tab - At the Drive-In






riff one
G||--------------------------|-----------------------|
D||--------------------------|-----------------------|
A||--------------------------|--------------------3--|
E||--5--5--5--5--0--3--0--5--|--5--5--5--0--3--5-----|
                                                              
--------------------------|-------------------------||
--------------------------|-------------------------||
--------------------------|--------------3----------||
--5--5--5--5--0--3--0--5--|--5--5--5--0-----5--3----||


riff two
||-------------------------|-------------------------||
||-------------------------|-------------------------||
||-------------------------|-------------------------||
||--5----5--0--3--0--3--0--|--5----5--0--3--0--3--0--||


chorus                                                                        
||-------------------------|---------------------------||
||-------------------------|-------------10-----10-----||
||-------------------------|----8--8--8------8------8--||
||--5----5--5--5/-8--8--8--|---------------------------||


riff three                                                     
||--------------------------|--------------------------|
||--------------------------|--------------------------|
||--------------------------|--3--3--3--3--3--3--3--3--|
||--1--1--1--1--1--1--1--1--|--------------------------|
                                                      
--------------------------|-------------------------||
--------------------------|-------------------------||
--------------------------|--3--3--3--3--3----------||
--1--1--1--1--1--1--1--1--|-----------------1--3----||






Like us on Facebook