Enfilade (ver2) Bass Tab - At the Drive-In






Artist:At-The-Drive-In
Song:Enfilade
Bassist:Section8


Riff 1
11X

G ------------------------------------------|
D ------------------------------------------|
A ----------------7-7-7-7-5-5-5-5-5-5-5-0-0-|
E --7-7-7-7-7-7-7---------------------------|


Riff 2
4X

G ------------------------------------------|
D ------------------------------------------|
A ------------------------------------------|
E -7-7-3-3-3-3-3-3-0-0-0-0-0-0-0-0----------|


Riff 1
7X

G ------------------------------------------|
D ------------------------------------------|
A ----------------7-7-7-7-5-5-5-5-5-5-5-0-0-|
E --7-7-7-7-7-7-7---------------------------|


Riff 2*
4X

G ------------------------------------------|
D ------------------------------------------|
A ----------------------------------7--7--7-|
E -7-7-3-3-3-3-3-3-0-0-0-0-0-0-0-0----------|


Bass Solo
2X

G ------------------------------------------|
D ------------------------------------------|
A ---------------9-9-9-9-5-5-5-5-5-5-5-0-0--|
E -7-7-7-7-7-7-7----------------------------|

G ------------------------------------------|
D ------------------------------------------|
A ------------------------------------------|
E -7-7-7-7-7-7-7-3-3-3-3-0-0-0-0-0-0-0-5-5--|


Riff 2
7X

G ------------------------------------------|
D ------------------------------------------|
A ------------------------------------------|
E -7-7-3-3-3-3-3-3-0-0-0-0-0-0-0-0----------|

If You Get The Rythm You Can Get It Easy.






Like us on Facebook