Honest To A Fault Bass Tab - At the Drive-In






Honest To a Fault by At The Drive-In for the bass guitar.

Tabbed by Greg Mitchell(If you want any other ATDI songs tabbed for the bass, message me 
AIM at xxvrufiovxx.)

Intro/Chorus:
G|------------------|
D|------------------|
A|----------5-5-5-5-| x4
E|-2-2-2-2----------|

Verse(If I could take back all the things...):
G|---------------------------------------|
D|---------------------------------------|
A|------------------------------5-55-555-| x4
E|-5-5-55-5--7-77-777--2-2-2-2-----------|

Play Chorus(If I fall behind..) x4
Play Verse x2
Play Chorus x4

Interlude:
G|-----------------------------|
D|-----------------------------|
A|--------5--5-5-7--7-7--------|
E|-2--2-2---------------7--7-7-|

Play Chorus x4
Play Verse x4

End with:
G|-----
D|-----
A|-----
E|-2-2-






Like us on Facebook