Hourglass Bass Tab - At the Drive-In




Hourglass by At The Drive-In for the bass guitar.

Tabbed by Greg Mitchell(If you want any other ATDI songs tabbed for bass, message me on 
at xxvrufiovxx.)

Standard Tuning

Verse(Sucks me in, takin a ride...):
G|----------------------|
D|------------------5---|
A|-------------3--3---3-| x4
E|-5~-5--1~--1----------|

Chorus(Im all alone so far...):
G|----------------------|
D|-------7----------7---|
A|------------5~--5---5-| x2
E|-5~--5---5------------|

Play Verse x4
Play Chorus x2
Play Verse until end of the song.
ĂŽnscrie-te la newsletter


Join the ranks ! LIKE us on Facebook